Song name
# A B C D E F G H I J K L M N O P Q R S T U V W X Y Z

Modest Mouse - Styrofoam Boots tab

Styrofoam Boots/ It's All Nice on Ice, Alright
from Lonesome Crowded West
Modest Mouse

Tuning: Standard


(Intro)

    G          Am   
e|---3----3----------------3----3--------------3----3----------------------|
B|---3----3----------------3----3--------------3----3----------------------|
G|----------------2p0-0-------------2p0-0-------------------2p0-0---2p0-0--|
D|------------2p0-------------------------0-------------2p0----------------|
A|-------------------------------------------------------------------------|
E|-3----3---3------------3----3--------------3----3---3--------------------|

e|-------------------3----3----------------3----3-----------------3----3---|
B|-------------------3----3----------------3----3-----------------3----3---|
G|----------0-2-0-----------------2p0-0------------2p0h2p0-----------------|
D|--2p0h2p0-------------------2p0--------------------------2p0-------------|
A|-------------------------------------------------------------------------|
E|-----------------3----3---3------------3----3-----------------3----3---3-|

e|-------------------------------------|
B|-------------------------------------|
G|-----2p0-0--2p0-0---------0-2-0------|
D|-2p0--------------2p0h2p0------------|
A|-------------------------------------|
E|-------------------------------------|

(Verse)
e|---3---3---3---3--|
B|---3---3---3---3--|
G|---0---0---0---0--|
D|------------------|
A|------------------|
E|-3---3---3---3----|

("Chorus" Chords)
e|-x---3-|
B|-3---3-|
G|-0---0-|
D|-2---0-|
A|-2---2-|
E|-0---3-|

Note: The outro is your standard G chord.
Tap to rate this tab
 
# A B C D E F G H I J K L M N O P Q R S T U V W X Y Z