Song name
# A B C D E F G H I J K L M N O P Q R S T U V W X Y Z

Modest Mouse - World At Large tab

Help us improve GuitareTab! Take a short survey!
-------------------------------------------------------------------------------
			     THE WORLD AT LARGE - Modest Mouse
-------------------------------------------------------------------------------
Tabbed by: Chris
Email: heat_0222@yahoo.com

Tuning: Standard EADGBE

Great song.  I read the tabs for this one on here, but to say the least they were all
only partially accurate. Hope this ones better!

Guitar 1:

e|---------------------------------------------------------------------------|
B|---------------------------------------------------------------------------|
G|--11-11-11-11-11-11-11-11/13-11/13-10-10-10-10-10-10-10-8-8----------------|
D|--11------------------------------------------------------9-9-9-9-9-9-9/11-|
A|---------------------------------------------------------------------------|
E|---------------------------------------------------------------------------|

e|---------------------------------------------------------------------------|
B|---------------------------------------------------------------------------|
G|---------------------------------------------------------------------------|
D|9/11-8-8-8-8-8-8-----------------------------------------------------------|
A|---------------------------------------------------------------------------|
E|---------------------------------------------------------------------------|

Guitar 2:

e|---------------------------------------------------------------------------|
B|------11------------11------------11------------11----------11---------11--|
G|---11----11------11----11------10----10------10----10-----8----8-----8----8|
D|11------------11------------11------------11------------9----------9-------|
A|---------------------------------------------------------------------------|
E|---------------------------------------------------------------------------|

                                    *******
Related for World At Large tab