Song name
# A B C D E F G H I J K L M N O P Q R S T U V W X Y Z

Modest Mouse - Satin In A Coffin tab

Satin in a Coffin- Modest Mouse

Tuning: Standard


Intro Lick

e----------------------------------------------------------|
B------------------------------8---------------------------|
G----------------7-----------------------------------------|
D----------8h10----10p8h10p8-------------------------------|
A-----8h10-------------------10--10------------------------|
E----------------------------------------------------------|


e----------------------------------------------------------|
B----------------------------8-----------------------------|
G----------------7-----------------------------------------|
D----------8h10----10---8----------------------------------|
A-----8h10-----------------10--10--------------------------|
E----------------------------------------------------------|

e----------------------------------------------------------|
B------------------------------8---------------------------|
G----------------7-----------------------------------------|
D----------8h10----10p8h10p8-------------------------------|
A-----8h10-------------------10--10------------------------|
E----------------------------------------------------------|

e----------------------------------------------------------|
B----------------------------------------------------------|
G----------------7-----------------------------------------|
D----------8h10----10---8----------------------------------|
A-----8h10-----------------10------------------------------|
E----------------------------------------------------------|

Verse

e------------------------------------------------------------|
B------------------------------------------------------------|
G-----------------3---------------3--------------------------|
D---5---5---5---3-3-5---5---5---3-3--------------------------|
A---5---5---5---3-1-5---5---5---3-1--------------------------|
E ---3---3---3---1---3---3---3---1---------------------------|
repeat

tabbed by c-fri

questions?

email: ccfriedman@gmail.com
Tap to rate this tab
# A B C D E F G H I J K L M N O P Q R S T U V W X Y Z