Song name
# A B C D E F G H I J K L M N O P Q R S T U V W X Y Z

Modest Mouse - Paper Thin Walls tab

----------------------------------------------------------------------------
			     Paper Thin Walls - Modest Mouse
----------------------------------------------------------------------------

Tabbed by:SHANE
Email: adio_blacklabel@hotmail.com

Tuning:EADGBe
 
Measures one and two are for verses one and two, but ill tab verse two anyways.lol.
   
   Verse 1   
e|-------------------------------------------------------------------------|
B|---------7-7-5-5-5-----------------7-7-5-5-5-----------------------------|
G|---------------------7-6----------------------7-6------------------------|
D|--7-7----------------------7-7-------------------------------------------|
A|-------------------------------------------------------------------------|
E|-------------------------------------------------------------------------|
   PM感M                    PM感M (theres a harmonic in this part of the verse
played on guitar one i think which is probably acoustic) 
G|---7+---|

e|-------------------------------------------------------------------------|
B|------7--7--------7--7--------7--7----777---5-5--------------------------|
G|------6--6--------6--6--------6--6----666---7-6--------------------------|
D|--7-7-7-------7-7-7-------7-7-7-------777---7-7--------------------------|
A|-------------------------------------------------------------------------|
E|-------------------------------------------------------------------------|
   PM感M   ^  PM感M    ^  PM感M    ^     ^ 
   Bridge? 
e|-------------------------------------------------------------------------|
B|-------------------------------------------------------------------------|
G|----6/9-9----------------------------------------------------------------|
D|-------------------------------------------------------------------------|
A|-------------------------------------------------------------------------|
E|-------------------------------------------------------------------------|
    the 6/9-9 is ,under issac's voice, 4 beats and ,after he sings, 4 beats
and after he sings its louder on the third beat
    Chorus
e|-------------------------------------------------------------------------|
B|---0-----3-----3-----0---------------------------------------------------|
G|---2-----2-----4-----0---------------------------------------------------|
D|---2-----0-----4-----2---------------------------------------------------|
A|---0-----------------3---------------------------------------------------|
E|-------------------------------------------------------------------------|
     I'm thinkin this chorus uses a flanger or chorus or summthin like that.
lol.
e|---0-----0-----------0---------------------------------------------------|
B|---0-----3-----3-----1-------------------------0-----3-----3-----0-------|
G|---2-----2-----4-----0------and this again-----2-----2-----4-----0-------|
D|---2-----0-----4-----2-------------------------2-----0-----4-----2-------|
A|---0-----------------3-------------------------0-----------------3-------|
E|-------------------------------------------------------------------------|
   Verse 2
e|-------------------------------------------------------------------------|
B|---------7-7-5-5-5-----------------7-7-5-5-5-----------------------------|
G|---------------------7-6----------------------7-6------------------------|
D|--7-7----------------------7-7-------------------------------------------|
A|-------------------------------------------------------------------------|
E|-------------------------------------------------------------------------|
   PM感M                    PM感M               and the harmonic G|--7+--

e|-------------------------------------------------------------------------|
B|------7--7--------7--7--------7--7----777---5-5--------------------------|
G|------6--6--------6--6--------6--6----666---7-6--------------------------|
D|--7-7-7-------7-7-7-------7-7-7-------777---7-7--------------------------|
A|-------------------------------------------------------------------------|
E|-------------------------------------------------------------------------|
   PM感M   ^  PM感M    ^  PM感M    ^     ^  
   Bridge
e|-------------------------------------------------------------------------|
B|-------------------------------------------------------------------------|
G|----6/9-9----------------------------------------------------------------|
D|-------------------------------------------------------------------------|
A|-------------------------------------------------------------------------|
E|-------------------------------------------------------------------------|
    

  Uh, i guess email me if you feel like it, good or bad, hopefully good.Tab ya later.Bye bye.

| /  Slide up
| \  Slide down
| h  Hammer-on
| p  Pull-off
| ~  Vibrato
| +  Harmonic
| x  Mute note
| ^  Upstroke
| PM Palm Mute
============================================================================
Tap to rate this tab
# A B C D E F G H I J K L M N O P Q R S T U V W X Y Z