Song name
# A B C D E F G H I J K L M N O P Q R S T U V W X Y Z

Modest Mouse - Head South tab

 Song:Head South
 By:Modest Mouse
Album: This A Long Drive For Someone With Nothing To Think About


--------------INTRO--------------


   /.5\  /.5\   /.5\  /.5\   /.5\  /.5\   
e|----------------------------3--------------------|
B|--1-----1-----0-------------1-----1-----0--------|
G|--0-----2-----0-------------0-----2-----0--------|
D|--2-----3-----0-------------2-----3-----0--------|
A|--3-----3-----x-------------3-----3-----x--------|
E|--0-----------3-------------------------3--------| x2


--------------VERSE--------------

Guitar 1 and 2 riff:

e|------------------------|
B|------------------------|
G|------------------------|
D|----5-0-2---1-0---------|
A|--7-------3-----3---2---|
E|------------------3-----|

Guitar 2 sometimes plays this:

e|---------------------------------|
B|---------------------------------|
G|---------------------------------|
D|----5-0-2---1-0------------------|
A|--7-------3-----3---2---9-9-7-7--|
E|------------------3--------------|

The last 3 times play this:

e|-------------------------------------|--
B|-------------------------------------|--
G|-------------------------------------|--
D|----5-0-2---1-0----------------------|--
A|--7-------3-----3---2/---12--12-10-9-|--
E|------------------3------------------|--

  ---------------------------------------|--
  ---------------------------------------|--
  ---------------------------------------|--
  ---5p0-0-------1-0---------------------|--
  -7-------7p0-3-----3---2/---9---10-12\-|--
  ---------------------3-----------------|--

  ---------------------------------------|--
  ---------------------------------------|--
  ---------------------------------------|--
  ----5p0-0-2---1-0----------------------|--
  --7---------3-----3---2/---12--12-10-9-|--
  --------------------3------------------|--


--------------CHORUS--------------


e|---------------------------------------------------------|--
B|---------------------------------------------------------|--
G|--9--9--11--12-x-x-14--12--x-x-5--5--7--5--x-x-7--5--x-x-|--
D|--x--x--x---x--x-x-x---x---x-x-x--x--x--x--x-x-x--x--x-x-|--
A|--7--7--9---10-x-x-12--10--x-x-3--3--5--3--x-x-5--3--x-x-|--
E|---------------------------------------------------------|--

  -----------------|-------------------|
  -----------------|-------------------|
  -----------------|-------------------|
  -----------------|---------------x-x-|
  -----------------|---------------x-x-|
  -3-3-3-3-3-3-3-3-|-3-3-3-3-3-3-3-x-x-|


Variation (see chord marked with *):

                     * 
e|---------------------------------------------------------|--
B|---------------------------------------------------------|--
G|--9--9--11--12-x-x-11--12--x-x-5--5--7--5--x-x-7--5--x-x-|--
D|--x--x--x---x--x-x-x---x---x-x-x--x--x--x--x-x-x--x--x-x-|--
A|--7--7--9---10-x-x-9---10--x-x-3--3--5--3--x-x-5--3--x-x-|--
E|---------------------------------------------------------|--

  -----------------|-------------------|
  -----------------|-------------------|
  -----------------|-------------------|
  -----------------|---------------x-x-|
  -----------------|---------------x-x-|
  -3-3-3-3-3-3-3-3-|-3-3-3-3-3-3-3-x-x-|


REPEAT-VERSE-AND-CHORUS


OUTRO

Riff 1:

guitar 1 jam with these 3 chords:

e|---------------------------|
B|-----------------3---------|
G|---11-----7------0---------|
D|---x------x------0---------|
A|---9------5------x---------|
E|-----------------3---------| x1

guitar 2 with these chords:

e|--------------------------|
B|--------------------------|
G|--------------------------|
D|---9------5------5--------|
A|---x------x------x--------|
E|---7------3------3--------| x1


Riff 2:

guitar 1 same chords:

e|---------------------------|
B|-----------------3---------|
G|---11-----7------0---------|
D|---x------x------0---------|
A|---9------5------x---------|
E|-----------------3---------| x1

guitar 2 with these new chords:

e|---------------------------|
B|---------------------------|
G|----------7------9-----7---|
D|---9------x------x-----x---|
A|---x------5------7-----5---|
E|---7-----------------------| x1


Riff 3:



e|---------------------------------------|
B|---------------------------------------|
G|--16-----------------------------------|
D|--x--------12-----14-----12-----10-9---|
A|--14-------x------x------x------x--x---|
E|-----------10-----12-----10-----8--7---| x2


Riff 4:

          
e|--------------|-------------|-----------|--------------------|
B|--------------|-------------|-----------|--------------------|
G|--16----19----|-16----19----|-16--------|--------------------|
D|--x-----x-----|-x-----x-----|-x---------|--14----12----10-9--|
A|--14----17----|-14----17----|-14--------|--x-----x-----x--x--|
E|--------------|-------------|-----------|--12----10----8--7--| x2

Final Riff:

e|------------------------|-------------------------|
B|------------------------|-------------------------|
G|-9--7--5--4--9--7--5--4-|-9--7--5--4--5--4--5--4--|
D|-x--x--x--x--x--x--x--x-|-x--x--x--x--x--x--x--x--|
A|-7--5--3--2--7--5--3--2-|-7--5--3--2--3--2--3--2--|
E|------------------------|-------------------------|


it may LOOK hard but it actually isn't just sit down and try it!




Tap to rate this tab
# A B C D E F G H I J K L M N O P Q R S T U V W X Y Z