Song name
# A B C D E F G H I J K L M N O P Q R S T U V W X Y Z

Modest Mouse - Teeth Like Gods Shoeshine tab

(Intro riff one)
e|------------------------------------|
B|----------5-------------------------|
G|------------------------------------|
D|-4b5--4b5---4p0---------------------|
A|----------------5p0-----0-----------|
E|--------------------3p0-------------|


(Harmonics in breakdown)
e|--------------------|
B|---5+------5+-------|
G|-------5+-----5+----|
D|--------------------|
A|--------------------|
E|--------------------|

(Transition)
e|---------------------------------------------------------|
B|-5--5--5--5-5--------------------------------------------|
G|-x--x--x--x-x----------------9--9--9--9-9----------------|
D|-4--4--4--4-4--5--5--5--5-5--x--x--x--x-x--7--7--7--7-7--|
A|---------------5--5--5--5-5--7--7--7--7-7--7--7--7--7-7--|
E|---------------3--3--3--3-3----------------5--5--5--5-5--|

(Transition 2)
e|----------------------------------------------------------|
B|-------------5-------------5------------------------------|
G|----------------------------------------------------------|
D|-4-4--4-----------4-4--4----0--5p0------------------|
A|-----------------------------------4p0---4-4-------|
E|---------------------------------------3------------|
  PM...           PM.......    PM.................

(Harmonics)
e|-------------------------------|
B|-------------------------------|
G|-------------------------------|
D|-------------------------------|
A|----5+--5+-----5+--4+----------|
E|-7+---------5+--------3+--3+b--|

(Interlude part)
e|------------------------------|
B|------------------------------|
G|------------------------------|
D|------7------0-----5-----5/7--|
A|----5------4-----5-----5------|
E|--7------5-----3-----3--------|

(2nd half of song/Outro pt.1)
e|-----------------------------------------------------------------|
B|-----------------------------------------------------------------|
G|-----------------------------------------------------------------|
D|-9--9-9-9-9-9-9--7--7-7-7-7-7-7--5--5-5-5-5-5-5--5--5-5-5-5-5-5--|
A|-x--x-x-x-x-x-x--x--x-x-x-x-x-x--x--x-x-x-x-x-x--x--x-x-x-x-x-x--|
E|-7--7-7-7-7-7-7--5--5-5-5-5-5-5--3--3-3-3-3-3-3--3--3-3-3-3-3-3--|

(2nd half of song/Outro pt.2)
e|------------------------------------------------------------------------|
B|------------------------------------------------------------------------|
G|11--9--7--6--7--6----11--9--7--6--7----11--9--7--6--7--6----------------|
D|-x--x--x--x--x--x-----x--x--x--x--x-----x--x--x--x--x--x----------------|
A|-9--7--5--4--5--4-----9--7--5--4--5-----9--7--5--4--5--4--0-4-5p4--0-4--|
E|------------------------------------------------------------------------|

e|----------|
B|----------|
G|----------|
D|----------|
A|-5p4--0---|
E|----------|

2nd half of outro
e|-------------------------------------------------------------------------|
B|-------------------------------------------------------------------------|
G|11--11-11-11-11--11--11-11-11-11--12\11--11-11-11-11--12\11--11-11-11-11-|
D|-x---x--x--x--x---x---x--x--x--x---x-x----x--x--x--x---x-x----x--x--x--x-|
A|-9---9--9--9--9---9---9--9--9--9--10\9----9--9--9--9--10\9----9--9--9--9-|
E|-------------------------------------------------------------------------|

outro harmonics part
e|-------------------------------------|
B|-5+---------5+---------5+------------|
G|----7+-5+------7+-5+------7+-5+-5+b--|
D|-------------------------------------|
A|-------------------------------------|
E|-------------------------------------|

credit to colin michael who  origionally tabbed the song if you view the lonesome crowded
west album tab. i just changed some things that i disagreed with. its a difficult song to
tab out to get right becuase alot of people have tabbed it out and the intro always
sounds right but its always different. 
Tap to rate this tab
 
# A B C D E F G H I J K L M N O P Q R S T U V W X Y Z