Song name
# A B C D E F G H I J K L M N O P Q R S T U V W X Y Z

Modest Mouse - Secret Agent X-9 tab

MODEST MOUSE
Sad Sappy Sucker
"Secret Agent X-9"
Tabbed By Garrett Gold (Yugugelizer)

INTRO/VERSE
E |----------------------|
B |----------------------|
G |----5-----5------7-7-5|
D |--3-----3-----3--5-5-3|
A |5-----5-----5----7-7-5|
E |----------------------|

CHORUS
E |---------------------------|
B |---------------------------|
G |5-5-5-5-5-5-5-5-7-7-5-5-5-5|
D |3-3-3-3-3-3-3-3-5-5-3-3-3-3|
A |5-5-5-5-5-5-5-5-7-7-5-5-5-5|
E |---------------------------|

BRIDGE
E |---------------------------------------------------------------|
B |---------------------------------------------------------------|
G |5-5-5-5-5-5-5-5-4-4-4-4-4-4-4-4--------------------------------|
D |3-3-3-3-3-3-3-3-2-2-2-2-2-2-2-2-5-5-5-5-5-5-5-5-5-5-5-5-5-5-5-5|
A |5-5-5-5-5-5-5-5-4-4-4-4-4-4-4-4-5-5-5-5-5-5-5-5-5-5-5-5-5-5-5-5|
E |--------------------------------3-3-3-3-3-3-3-3-3-3-3-3-3-3-3-3|

SONG ORDER

VERSE 4X
CHORUS 4X
BRIDGE 2X
VERSE 2X
Tap to rate this tab
 
# A B C D E F G H I J K L M N O P Q R S T U V W X Y Z