Song name
# A B C D E F G H I J K L M N O P Q R S T U V W X Y Z

Modest Mouse - Here It Comes tab

Tabbed by Cory Prusha
youtube:porkstorm
interjection@gmail.com

e|------------------------|
B|-----5-------7/12-------|
G|-5-7---7-5-7------------|
D|------------------12+---| +harmonic
A|------------------------|
E|------------------------|

This is a bastardization of the intro, which is played by backwards
banjo with echo. Some soft mutes will have this sounding close.

e|------------------7-5----------------|
B|-5-5h7p5---0-7---------7-5h7p5---0-7-|
G|---------7---7-----------------7-----|
D|-------------------------------------|
A|-------------------------------------|
E|-------------------------------------|

e|------------------7-5----------------|
B|-5-5h7p5---0-7---------7-5h7p5---0---|
G|---------7---7-----------------7---7-|
D|-----------------------------------0-|
A|-------------------------------------|
E|-------------------------------------|

Every other time this melody is played, just change the last note
of the measure as shown. Throw in an open D drone wherever you can.
You may have to mute your G to do this.


e|------------------------------------------------|
B|------------------------------------------------|
G|-9-9-9--11-11-11--4-4-4-4----9-9-9--11-11-11--7-|
D|-0~~~~~~~~~~~~~~~~~~~~~~~~~~~~~~~~~~~~~~~~~~~~~~|
A|------------------------------------------------|
E|------------------------------------------------|

Just drone with your open D string every other down-strum. It also
sounds fine to drone your A, although Isaac doesn't do this. The
drone is very audible, and I can't believe other tabs miss it.
Tap to rate this tab
 
# A B C D E F G H I J K L M N O P Q R S T U V W X Y Z