Song name
# A B C D E F G H I J K L M N O P Q R S T U V W X Y Z

Modest Mouse - Life Like Weeds tab

By: Modest Mouse
Song: Life Like Weeds
tabbed by chrtes


| /  slide up
| \  slide down
| h  hammer-on
| p  pull-off
| ~  vibrato
| +  harmonic
| x  Mute note


e|---------------------------------|
B|---------------------------------|
G|-11----11----11---11---11--------|
D|--0-----0-----0----0----0--------|
A|--9-----9-----9----9----9--------|
E|---------------------------------|


e|----------------------------|
b|----------------------------|
g|----------------------------|
D|----------7-----------------|
A|-5--7--9-----9--7--5--7--5--|
E|----------------------------|

e|---------------------------------|
B|---------------------------------|
G|-11----11----11---11---11--------|
D|--0-----0-----0----0----0--------|
A|--9-----9-----9----9----9--------|
E|---------------------------------|


e|----------------------------|
b|----------------------------|
g|----------------------------|
D|----------7-----------------|
A|-5--7--9-----9--7--5--7--5--|
E|----------------------------|

e|---------------------------------|
B|---------------------------------|
G|-11----11----11---11---11--------|
D|--0-----0-----0----0----0--------|
A|--9-----9-----9----9----9--------|
E|---------------------------------|


e|------------------------------------------------|
b|------------------------------------------------|
g|------------------------------------------------|
D|----------7----------------7--------------------|
A|-5--7--9-----9--7--5--7--9---9--7--5--7--5--7---|
E|------------------------------------------------|

e|---------------------------------|
B|---------------------------------|
G|-11----11----11---11---11--------|
D|--0-----0-----0----0----0--------|
A|--9-----9-----9----9----9--------|
E|---------------------------------|


e|------------------------------------------------|2x
b|------------------------------------------------|
g|------------------------------------------------|
D|----------7----------------7--------------------|
A|-5--7--9-----9--7--5--7--9---9--7--5--7--5--7---|
E|------------------------------------------------|


e|-----------------------------------|
b|-----------------------------------|
g|--7--------------------------------|
D|----9--7---------------------------|
A|---------9--7--5--7--9--7--5-------|
E|-----------------------------------|

e|------------------------------------------------|
b|------------------------------------------------|
g|------------------------------------------------|
D|----------7----------------7--------------------|
A|-5--7--9-----9--7--5--7--9---9--7--5--7--5--7---|
E|------------------------------------------------|


e|----------------------------------------------|
b|----------------------------------------------|
g|--7-7-----------------------------------------|
D|-------9-9--7-7-------------------------------|
A|-----------------9-9--7-7--5-5--7--9--7--5----|
E|----------------------------------------------|

e|------------------------------------------------|
b|------------------------------------------------|
g|------------------------------------------------|
D|----------7----------------7--------------------|
A|-5--7--9-----9--7--5--7--9---9--7--5--7--5--7---|
E|------------------------------------------------|


e|-----------------------------|
b|-----10-----------10---------|
g|---7-------9---7---------9---|
D|--------7------------7-------|
A|-----------------------------|
E|-----------------------------|


e|----------------------|
b|--6----6---6----6-----|
g|--0----0---0----0-----|
D|--4----4---4----4-----|
A|----------------------|
E|----------------------|


e|-----------------------------|
b|-----10-----------10---------|
g|---7-------9---7---------9---|
D|--------7------------7-------|
A|-----------------------------|
E|-----------------------------|


e|----------------------|
b|--6----6---6----6-----|
g|--0----0---0----0-----|
D|--4----4---4----4-----|
A|----------------------|
E|----------------------|


e|-----------------------------|
b|-----10-----------10---------|
g|---7-------9---7---------9---|
D|--------7------------7-------|
A|-----------------------------|
E|-----------------------------|


e|----------------------|
b|--6----6---6----6-----|
g|--0----0---0----0-----|
D|--4----4---4----4-----|
A|----------------------|
E|----------------------|


e|-----------------------------|
b|-----10-----------10---------|
g|---7-------9---7---------9---|
D|--------7------------7-------|
A|-----------------------------|
E|-----------------------------|


e|----------------------|
b|--6----6---6----6-----|
g|--0----0---0----0-----|
D|--4----4---4----4-----|
A|----------------------|
E|----------------------|


e|-----------------------------|
b|-----10-----------10---------|
g|---7-------9---7---------9---|
D|--------7------------7-------|
A|-----------------------------|
E|-----------------------------|


e|----------------------------|
b|----------------------------|
g|---4-4-4--6--7-6-4-2--------|
D|----------------------------|
A|----------------------------|
E|----------------------------|


e|------------------------------------------------|2x
b|------------------------------------------------|
g|------------------------------------------------|
D|----------7----------------7--------------------|
A|-5--7--9-----9--7--5--7--9---9--7--5--7--5--7---|
E|------------------------------------------------|


e|----------------------------------------------|
b|----------------------------------------------|
g|--7-7-----------------------------------------|
D|-------9-9--7-7-------------------------------|
A|-----------------9-9--7-7--5-5--7--9--7--5----|
E|----------------------------------------------|


e|------------------------------------------------|
b|------------------------------------------------|
g|------------------------------------------------|
D|----------7----------------7--------------------|
A|-5--7--9-----9--7--5--7--9---9--7--5--7--5--7---|
E|------------------------------------------------|


e|-------------------------------------------------------|
b|-------------------------------------------------------|
g|----------------7--------------------------------------|
D|----------7--9----9--7---------------------------------|
A|-5--7--9----------------9--7--5--7--5--7--5--7--5--7---|
E|-------------------------------------------------------|


e|-------------------------------------------------------|
b|-------------------------------------------------------|
g|----------------7--------------------------------------|
D|----------7--9----9--7-----------------7---------------|
A|-5--7--9----------------9--7--5--7--9----9--7--5--7----|
E|-------------------------------------------------------|


e|------------------------------------------------|
b|------------------------------------------------|
g|------------------------------------------------|
D|----------7----------------7--------------------|
A|-5--7--9-----9--7--5--7--9---9--7--5--7--5--7---|
E|------------------------------------------------|


e|---------------------------|
b|---------------------------|
g|---------------------------|
D|---------------------------|
A|--5--7--9--10--12----------|
E|---------------------------|


repeat these two for awhile
e|----------------------------|
b|----------------------------|
g|--14---12--11--9--7---------|
D|--14---12--11--9--7---------|
A|--12---10--9---7--5---------|
E|----------------------------|

e|-------------------------------|
b|-------------------------------|
g|--14---12--11--16--11\9--7-----|
D|--14---12--11--16--11\9--7-----|
A|--12---10--9---14---9\7--5-----|
E|-------------------------------|


you need some king of fuzzy distortion

e|----------------------------|
b|----------------------------|
g|---19b-----19b---19b--------|
D|---0-------0-----0----------|
A|---17b-----17b---17b--------|
E|----------------------------|


again

e|----------------------------|
b|----------------------------|
g|--14---12--11--9--7---------|
D|--14---12--11--9--7---------|
A|--12---10--9---7--5---------|
E|----------------------------|

e|-------------------------------|
b|-------------------------------|
g|--14---12--11--16--11\9--7-----|
D|--14---12--11--16--11\9--7-----|
A|--12---10--9---14---9\7--5-----|
E|-------------------------------|

then

e|---------------------------|
b|---------------------------|
g|--0--2--4------------------|
D|---------------------------|
A|---------------------------|
E|---------------------------|


e|--------------------------------|
b|--------------------------------|
g|--0--2--4-----------------------|
D|----------5--7--5h45h4--0-------|
A|--------------------------------|
E|--------------------------------|


e|-------------------------------|
b|-------------------------------|
g|--0--2--4------4h5--7--5-4-----|
D|-----------5-------------------|
A|-------------------------------|
E|-------------------------------|


sometimes hit a open g

e|--------------------------------|
b|--------------------------------|
g|--0--2--4------4h5--7--5-4--0---|
D|--------------------------------|
A|--------------------------------|
E|--------------------------------|

im tired, this tab was long. You can figure the rest out. Timing and placement that is.
yeah if the tuning doesnt sound completely right for those of you that have a tuner;
your strings down just a bit out of standard tuning so its almost regular tuning. like 
in the middle of drop d and standard. that will get the right sound somtimes.
Tap to rate this tab
# A B C D E F G H I J K L M N O P Q R S T U V W X Y Z