Song name
# A B C D E F G H I J K L M N O P Q R S T U V W X Y Z

Modest Mouse - Talking Shit About A Pretty Sunset tab

By:Modest Mouse
Song: Talking Shit About A Pretty Sunset
tabbed by chrtes


| /  slide up
| \  slide down
| h  hammer-on
| p  pull-off
| ~  vibrato
| +  harmonic
| x  Mute note

This is played through first part of song

e|--------------------------------------------------------|
b|--------------------------------------------------------|
G|-------9---9--9-------13--13-----11--11-----9--9--------|
D|-------0---0--0-------0----0-----0----0-----0--0--------|
A|-------7---7--7-------11--11-----9----9-----7--7--------|
E|--------------------------------------------------------|


After playing that this

e|------------------------------------------|2x
b|------------------------------------------|
G|----16---13---16---13--16--14--13---------|
D|------------------------------------------|
A|------------------------------------------|
E|------------------------------------------|


e|--13-----13-------------------------------|
b|------------------------------------------|
G|------16----13--14--13--14-13--9----------|
D|------------------------------------------|
A|------------------------------------------|
E|------------------------------------------|


e|------------------------------------------|2x
b|------------------------------------------|
G|----16---13---16---13--16--14--13---------|
D|------------------------------------------|
A|------------------------------------------|
E|------------------------------------------|


e|--13-----13----------------------13----------------|
b|---------------------------------------------------|
G|------16----16--14--13--14-13--9-----16--14-13--9--|
D|---------------------------------------------------|
A|---------------------------------------------------|
E|---------------------------------------------------|

Back to first riff then


e|---------------------------------------------|
b|-----12------12------12---12-----------------|
G|--13---13-13---13-13---13--------------------|
D|---------------------------------------------|
A|---------------------------------------------|
E|---------------------------------------------|


e|---------------------------------------------|
b|-----12----12----0---0---0---0---5-5-7-5-7---|
G|--13----13----11---11--8---8---6-------------|
D|---------------------------------------------|
A|---------------------------------------------|
E|---------------------------------------------|

e|-------------------------0---------5----------|
b|-----12----12---0---0------0----------5-------|
G|--13----13---11--11----8-----8---6------6-----|
D|----------------------------------------------|
A|----------------------------------------------|
E|----------------------------------------------|


Arpeggio

e|----5--------5----------5-----|
b|------5--------5------5-------|
G|--6-----6--6-----6--6-----6---|
D|------------------------------|
A|------------------------------|
E|------------------------------|


after every one of those^ do one of these
e|-----------------------------------------------------|
b|-----------------------------------------------------|
G|--11-12--9-----11-12--9---11-12--9---11-12hp-11-9h---|
D|-----------------------------------------------------|
A|-----------------------------------------------------|
E|-----------------------------------------------------|


After those are put together the end part is its alot of work to hear all of it because 
changes but heres how the first part of the last part is played


e|------0------0--------------------------|
b|----5-----5----5---5--------------------|
G|--------6--------6----------------------|
D|----------------------0-0-0-0-----------|
A|-------------------------------5--------|
E|----------------------------------------|


and play this chord to, listen to to get order


e|--5--5--5-----------------------|
b|--5--5--5----7-7-7--------------|
G|--6--6--6----7-7-7--------------|
D|--------------------------------|
A|--------------------------------|
E|--------------------------------|


This is play 3 times with different varations

e|------0------0--------------------------|3x
b|----5-----5----5---5--------------------|
G|--------6--------6----------------------|
D|----------------------0-0-0-0-----------|
A|-------------------------------5--------|
E|----------------------------------------|


And thats pretty much it, go get the song and start praticing.
Tap to rate this tab
# A B C D E F G H I J K L M N O P Q R S T U V W X Y Z