Song name
# A B C D E F G H I J K L M N O P Q R S T U V W X Y Z

Modest Mouse - What People Are Made Of tab

Tuning: Standard

Whats up, Make love?

E|--------------------------------------------|
B|--------------------12-12-12-12-12-12-------|
G|-11-11-11-11-11-11--12-12-12-12-12-12-------|     Strum hella 
D|-X--X--X--X--X--X---------------------------|        fast          
A|-9--9--9--9--9--9---------------------------|
E|--------------------------------------------|

    ^Listen to the song to figure^
     out how many times to strum it.

E|----------------------------------------------------|
B|-------------------------------------------10-------|
G|-11--11--11--11--11--11--11--11--11/12--12----------|
D|-X---X---X---X---X---X---X---X---X------------------|
A|-9---9---9---9---9---9---9---9---9------------------|
E|----------------------------------------------------|


E|--------------------------------------------------------|
B|--------------------12-12-12-12-12-12-12-12-12/14-14-14-|
G|-11-11-11-11-11-11--12-12-12-12-12-12-12-12-12-12-12-12-|     
D|-X--X--X--X--X--X------------------X--X--X--X--X--X--X--|                 
A|-9--9--9--9--9--9------------------9--9--9--9--9--9--9--|
E|--------------------------------------------------------|


E|----------------------------------------------------|
B|-------------------------------------------10-------|
G|-11--11--11--11--11--11--11--11--11/12--12----------|
D|-X---X---X---X---X---X---X---X---X------------------|
A|-9---9---9---9---9---9---9---9---9------------------|
E|----------------------------------------------------|


E|--------------------------------------------|
B|--------------------12-12-12-12-12-12-------|
G|-11-11-11-11-11-11--12-12-12-12-12-12-------|   After this it goes into
D|-X--X--X--X--X--X---------------------------|   the drum/bass solo. In    
A|-9--9--9--9--9--9---------------------------|   the middle of that play
E|--------------------------------------------|   this.  

E|------------------------------|
B|------------------------------|
G|------------------------------|
D|-999999--11-12--555555--7/9---|     Listen when to come in, its kind of 
A|-999999--11-12--555555--7/9---|     hard to hear.
E|-777777--9--10--333333--5/7---|

E|--------------------------------------------------------|
B|--------------------12-12-12-12-12-12-12-12-12/14-14-14-|
G|-11-11-11-11-11-11--12-12-12-12-12-12-12-12-12-12-12-12-|     
D|-X--X--X--X--X--X------------------X--X--X--X--X--X--X--|                 
A|-9--9--9--9--9--9------------------9--9--9--9--9--9--9--|
E|--------------------------------------------------------|
                                                             
                                                        
                                                            

Word to your mother....Mike h.
Tap to rate this tab
 
# A B C D E F G H I J K L M N O P Q R S T U V W X Y Z