Song name
# A B C D E F G H I J K L M N O P Q R S T U V W X Y Z

Modest Mouse - Tiny Cities Made Of Ashes tab

Help us improve GuitareTab! Take a short survey!
Alright, this is my first tab ever, but I think I did pretty well on it.
Here's the bass part transcribed into guitar.

e[----------------------------------------------------------------------]
B[----------------------------------------------------------------------]
G[----------------------------------------------------------------------]
D[----------------------------------------------------------------------]
A[---6-7-9--------------------------------------------------------------]
E[-4--------------------------------------------------------------------]

Repeat that over and over (about 15-20 times) and then comes the solo...

e[--11-9-11-9----9----9------9----11-9---9-11-9-11-9---9--9-------------]
B[------------12---12---9-12---12------12------------12-12--9--9-12-----]
G[-----------------------------------------------------------10---------]
D[----------------------------------------------------------------------]
A[----------------------------------------------------------------------]
E[----------------------------------------------------------------------]

Then repeat, but at the very end, instead of

e[-------------------]
B[-9---9-12----------]
G[--10---------------]
D[-------------------]
A[-------------------]
E[-------------------]

Play:

e[-------------------]
B[-9--12-9-----------]
G[--10---------------]
D[-------------------]
A[-------------------]
E[-------------------]

There might be a few extra notes in the song, but this is the base of it.
I hope this tab helped.
Related for Tiny Cities Made Of Ashes tab