Song name
# A B C D E F G H I J K L M N O P Q R S T U V W X Y Z

Modest Mouse - Perfect Disguises tab

Help us improve GuitareTab! Take a short survey!
"Perfect Disguises"- Modest Mouse

Notation

4\2   = slide
h or p= hammer-on or pull off
~ = vibrato

Chords used.

Bsus2 and Asus2 through the whole song

e|--2--------0----|
B|--2--------0----|
G|--4--------2----|
D|--4--------2----|
A|--2--------0----|
E|----------------|

Let Ring.

e|-0------0--------------|
B|---1h2-----2-----------|
G|--------------4\-2-2~--|2x
D|-----------------------|
A|-----------------------|
E|-----------------------|

Then...

   Bsus 2                               Asus2

e|-----------------------------------|-----------------------|
B|------2------------2---------------|----0-------0----------|
G|--------4-----4------4-----4--4\2--|------2--------2--2/4--|
D|------------4------------4---------|---------2-------------|
A|---2-------------------------------|--0--------------------|
E|-----------------------------------|-----------------------|

   Bsus2                                Asus2

e|-----------------------------------|-----------------|
B|------2------------2---------------|------0----------|
G|--------4-----4------4-----4--4\2--|--------2----2/4-|
D|------------4------------4---------|-----------------|
A|---2-------------------------------|--0--------------|
E|-----------------------------------|-----------------|

   Bsus2                                Asus2 (Just Open A here)

e|-----------------------------------|------------|
B|------2------------2---------------|------------|
G|--------4-----4------4-----4--4\2--|------------|
D|------------4------------4---------|------------|
A|---2-------------------------------|--0---------|
E|-----------------------------------|------------|


From them on, its just strumming between Bsus2 and Asus2 during the lyrics, then back to the riffs.

Good luck!

Maestro1286
Related for Perfect Disguises tab