Song name
# A B C D E F G H I J K L M N O P Q R S T U V W X Y Z

Modest Mouse - Dukes Up tab

I saw that no one tabbed this so I decided to tab it. It's fairly easy, off of Sad
Sappy Sucker. Most people don't know it, and it's a really good song.

Intro/Bridge:

e------------------------------------------------------------------------|
B------------------------------------------------------------------------|
G-------4-----5-----7-----7---7--------4-----5-----7-----7---7-----------|
D---5-5---5-5---5-5---5-5---5------5-5---5-5---5-5---5-5---5-------------|
A------------------------------------------------------------------------|
E------------------------------------------------------------------------|

e------------------------------------------------------------------------|
B------------------------------------------------------------------------|
G------------------------------------------------------------------------|
D-------4-----5-----7-----7---7--------4-----5-----7-----7--7------------|
A---5-5---5-5---5-5---5-5---5------5-5---5-5---5-5---5-5---5-------------|
E------------------------------------------------------------------------|

Repeat that 5 times, and then:

Verse:
(This is where the lyrics come in)
e------------------------------------------------------------------------|
B---12-12-12--12-12--12-12-12--12-12-------------------------------------|
G---12-12-12--12-12--12-12-12--12-12--12-12-12--12-12--12-12-12--12-12---|
D---10-10-10--10-10--10-10-10--10-10--12-12-12--12-12--12-12-12--12-12---|
A-------------------------------------10-10-10--10-10--10-10-10--10-10---|
E------------------------------------------------------------------------|

Repeat that 5 times and then:

Intro/Bridge (2x)
Verse (5x)
Intro/Bridge (1x)

send comments/questions to corykim@cox.net

-Cory
Tap to rate this tab
# A B C D E F G H I J K L M N O P Q R S T U V W X Y Z