Song name
# A B C D E F G H I J K L M N O P Q R S T U V W X Y Z

Modest Mouse - Lounge Closing Time tab

lounge (closing time) intro

modest mouse

chords used
e|--3----0--
B|--3----1--|
G|--3----2--|
D|-------3--|
A|----------|
E|----------|

part 1
e|--3-x-x-3-x-3-3-3-3-x-x------|
B|--3-x-x-3-x-3-3-3-3-x-x--x2--|
G|--3-x-x-3-x-3-3-3-3-x-x------|
D|-----------------------------|
A|-----------------------------|
E|-----------------------------|
part 2
e|-0-x-x-0-x-0-0-0-0-x-x-----0-0-0-0-0-0-0|
B|-1-x-x-1-x-1-1-1-1-x-x-----1-1-1-1-1-1-1|
G|-2-x-x-2-x-2-2-2-2-x-x-----2-2-2-2-2-2-2|
D|-3-x-x-3-x-3-3-3-3-x-x-----3-3-3-3-3-3-3|
A|----------------------------------------|
E|----------------------------------------|
 last bit of part 2 is played: d du du dd
Tap to rate this tab
# A B C D E F G H I J K L M N O P Q R S T U V W X Y Z