Song name
# A B C D E F G H I J K L M N O P Q R S T U V W X Y Z

Modest Mouse - White Lies Yellow Teeth tab

Modest Mouse's "White Lies, Yellow Teeth" originally on the Lonesome Crowded West demos

Tabbed by loopdeloop

-----------------------------------------------------------
(Main riff)
e|---------------------------------|
B|---------------------------------|
G|--9-9-9-9-9-9-9-9-7-7-7-5--4-0---|
D|---------------------------------|
A|-(7)-------------(5)---(3)(2)----|
E|---------------------------------|
 
Note: Sometimes this is played with octaves instead of 
just single notes. The other fret played in an octave 
is tabbed below it's corresponding note on the other 
string in parenthesis.
 
(Main riff variation)
e|---------------------------------|
B|---------------------------------|
G|--9-9-9-9-9-9-9-9/12-9-7-5--4-0--|
D|---------------------------------|
A|-(7)--------------------(3)(2)---|
E|---------------------------------|
 
(Main riff variation 2)
e|---------------------------------|
B|---------------------------------|
G|--9-9-9-9-9-9-9-9-7-7/12-5--4-0--|
D|---------------------------------|
A|-(7)----------(5)-------(3)(2)---|
E|---------------------------------|
 
(Interlude)
e|------------------------------------------------------------|
B|------------------------------------------------------------|
G|--12-9-7-5-4-0-0--12-9-7-5-4-0-0--12-9-7-5-4-0-0--4-5-7-12--|
D|------------------------------------------------------------|
A|------------------------------------------------------------|
E|------------------------------------------------------------| 
 
(Verse strumming)
e|--x-x-xxxx--|
B|--x-x-xxxx--|
G|--x-x-xxxx--|
D|--x-x-xxxx--|
A|--x-x-xxxx--|
E|--x-x-xxxx--|
 
(Harmonic jam chord)
e|--5+--|
B|--5+--|
G|--5+--|
D|--5+--|
A|------|
E|------|
-----------------------------------------------------------

questions, comments, corrections to loopdeloop123@yahoo.com

alternatively, use the link at the top entitled "Comments".
Tap to rate this tab
# A B C D E F G H I J K L M N O P Q R S T U V W X Y Z