Guitaretab - guitar tabs
Song name
# A B C D E F G H I J K L M N O P Q R S T U V W X Y Z

Modest Mouse - It Always Rains On A Picnic tab

This should be it. If not, it sounds just as good :)
The first part is played all the way until the outro.

Transcribed by GuitarEspen

Standard tuning

 Part 1

 Gtr I
E|--------5------5----------5------5------5-----5-----5-----------------|
B|----5h7---7------7----5h7---7------5------5-----5---------------------|
G|--------------------------------------------6-----6-------------------|
D|------------------------------------------------------5---5-4---4-2---|
A|--5----------5------5----------5------4-----------------5-----5-----5-|
E|----------------------------------------------------------------------|

 Gtr II
E|----------------------------------------------------------------------|
B|----------------------------------------------------------------------|
G|--7----------/9----------------7---6--------------6-6-6-7-6---6-7---6-|
D|-------------------7----------------------------------------7---------|
A|----------------------------------------------------------------------|
E|----------------------------------------------------------------------|

 Part II
[ Tab from: http://www.guitaretab.com/m/modest-mouse/70594.html ]
Outro - 2:15 min

  Gtr I
E|-----------------------------------|
B|-----------------------------------|
G|--7-7-7-7-7-7-9-9-7-7-7-7-7-7-2-2--|
D|--7-7-7-7-7-7-7-7-5-5-5-4-4-4-2-2--|
A|--5-5-5-5-5-5-----------------0-0--|
E|-----------------------------------|

  Gtr II
E|-------------------------------------------|
B|------------------5-5----------------------|
G|--6h7-7-7-6h7-7-7-----6h7-7-7-6h7-7-7------|
D|--------------------------------------7-7--|
A|-------------------------------------------|
E|-------------------------------------------|

  Gtr I
E|-----------------------------------|
B|-----------------------------------|
G|--7-7-7-7-7-7-9-9-7-7-7-7-7-7-2-2--|
D|--7-7-7-7-7-7-7-7-5-5-5-4-4-4-2-2--|
A|--5-5-5-5-5-5-----------------0-0--|
E|-----------------------------------|

  Gtr II
E|----------------------------------5--------|
B|------------------5-5---------------5------|
G|--6h7-7-7-6h7-7-7-----6h7-7-7-6h7-----7----|
D|----------------------------------------7--|
A|-------------------------------------------|
E|-------------------------------------------|

and that's it! enjoy!
Related for It Always Rains On A Picnic tab
×
Best way to learn
"It Always Rains On A Picnic"