Song name
# A B C D E F G H I J K L M N O P Q R S T U V W X Y Z

Modest Mouse - Exit Does Not Exist tab

By:Modest Mouse
Song: Exit Does Not Exist
tabbed by chrtes


| /  slide up
| \  slide down
| h  hammer-on
| p  pull-off
| ~  vibrato
| +  harmonic
| x  Mute note


e|----------------------------------------|
b|----------------------------------------|
g|----------------------------------------|
D|------4------------0---5--0-------------|
A|---2--------0---2-----------------------|
E|---------3------------------------------|

e|----------------------------------------|
b|----------------------------------------|
g|----------------------------------------|
D|------4------------0---5--7--9--7-------|
A|---2--------0---2-----------------------|
E|---------3------------------------------|


e|----------------------------------------|
b|----------------------------------------|
g|----------------------------------------|
D|------4------------0---9--7--5--0-------|
A|---2--------0---2-----------------------|
E|---------3------------------------------|


e|------------------------------------|
b|------------------------------------|
g|------------------------------------|
D|------4------------0--0--5--0-------|
A|---2--------0---2-------------------|
E|---------3--------------------------|


e|------------------------------------------|
b|------------------------------------------|
g|------------------------------------------|
D|------4------------0--0--5--7--9--7-------|
A|---2--------0---2-------------------------|
E|---------3--------------------------------|


e|-------------------------------------------|
b|-------------------------------------------|
g|-------------------------------------------|
D|------4------------0-0--9--7--5--0---------|
A|---2--------0---2--------------------------|
E|---------3---------------------------------|


e|-----------------------------------------|
b|-----------------------------------------|
g|-----------------------------------------|
D|------4------------0--0--5--7--9---------|
A|---2--------0---2------------------------|
E|---------3-------------------------------|


e|------------------------------------------|2x
b|------------------------------------------|
g|--11-11--11----9------11-11----7----------|
D|--0--0---0-----0------0--0-----0----------|
A|--9--9---9-----7------9--9-----5----------|
E|------------------------------------------|


e|-------------------------------------------|2x
b|-------------------------------------------|
g|--11-11--11-----7--7------9----------------|
D|--0--0---0------0--0------0----------------|
A|--9--9---9------5--5------7----------------|
E|-------------------------------------------|

e|------------------------------|1x
b|------------------------------|
g|--11-11--11--------7----------|
D|--0--0---0---------0----------|
A|--9--9---9---------5----------|
E|------------------------------|


e|-------------------------------------------|
b|-------------------------------------------|
g|--11-11--11-----7--7------9----------------|
D|--0--0---0------0--0------0----------------|
A|--9--9---9------5--5------7----------------|
E|-------------------------------------------|

e|------------------------------|6x
b|------------------------------|
g|--11-11--11--------7----------|
D|--0--0---0---------0----------|
A|--9--9---9---------5----------|
E|------------------------------|

e|-------------------------------------------|
b|-------------------------------------------|
g|--11-11--11-----7--7------9----------------|
D|--0--0---0------0--0------0----------------|
A|--9--9---9------5--5------7----------------|
E|-------------------------------------------|

e|-------------------------------------------|2x
b|-------------------------------------------|
g|--11-11--------------------------9---------|
D|--0--0----12--11-12-11---12-12---0---------|
A|--9--9----0---0--0--0----0--0----7---------|
E|----------10--9--10-9----10-10-------------|


e|----------------------------------------------------|2x
b|-----10--12--10------10--12-10------10--12--12--14--|
g|--11--------------11-------------11-----------------|
D|----------------------------------------------------|
A|----------------------------------------------------|
E|----------------------------------------------------|

e|----17---17-17--17-17--17--17--17---------|2x
b|------------------------------------14----|
g|------------------------------------------|
D|------------------------------------------|
A|------------------------------------------|
E|------------------------------------------|

e|-------------------------------------------|
b|-------------------------------------------|
g|--11-11--11-----7--7------9----------------|
D|--0--0---0------0--0------0----------------|
A|--9--9---9------5--5------7----------------|
E|-------------------------------------------|

e|-------------------------------------------|
b|-------------------------------------------|
g|--11-11--------------------------9---------|
D|--0--0----12--11-12-11---12-12---0---------|
A|--9--9----0---0--0--0----0--0----7---------|
E|----------10--9--10-9----10-10-------------|

e|-------------------------------------------|
b|-------------------------------------------|
g|--11-11--11-----7--7------9----------------|
D|--0--0---0------0--0------0----------------|
A|--9--9---9------5--5------7----------------|
E|-------------------------------------------|


e|-------------------------------------------|
b|-------------------------------------------|
g|--11-11------------------------------------|
D|--0--0----12--11-12-11--12--11--12---------|
A|--9--9----0---0--0--0---0---0---0----------|
E|----------10--9--10-9---10--9---10---------|

e|----------------------------------------|
b|----------------------------------------|
g|----------------------------------------|
D|------4------------0---5--0-------------|
A|---2--------0---2-----------------------|
E|---------3------------------------------|

e|----------------------------------------|
b|----------------------------------------|
g|----------------------------------------|
D|------4------------0---5--7--9--7-------|
A|---2--------0---2-----------------------|
E|---------3------------------------------|

e|----------------------------------------|
b|----------------------------------------|
g|----------------------------------------|
D|------4------------0---5--0-------------|
A|---2--------0---2-----------------------|
E|---------3------------------------------|

e|----------------------------------------|
b|----------------------------------------|
g|----------------------------------------|
D|------4------------0---5--7--9--7-------|
A|---2--------0---2-----------------------|
E|---------3------------------------------|

e|----------------------------------------|
b|----------------------------------------|
g|----------------------------------------|
D|------4------------0---9--7--5--0-------|
A|---2--------0---2-----------------------|
E|---------3------------------------------|


e|----------------------------------------------------|2x
b|----------------------------------------------------|
g|----------------------------------------------------|
D|--0-5-0-0-0---5--7--9-7----0-5-0-0-0---9--7--5--0---|
A|----------------------------------------------------|
E|----------------------------------------------------|


Listen to song to get varation

e|------------------------------------------|2x
b|------------------------------------------|
g|--11-11--11----9------11-11----7----------|
D|--0--0---0-----0------0--0-----0----------|
A|--9--9---9-----7------9--9-----5----------|
E|------------------------------------------|

e|-------------------------------------------|
b|-------------------------------------------|
g|--11-11--11-----7--7------9----------------|
D|--0--0---0------0--0------0----------------|
A|--9--9---9------5--5------7----------------|
E|-------------------------------------------|

e|-------------------------------------------|
b|-------------------------------------------|
g|--11-11------------------------------------|
D|--0--0----12--11-12-11--12--11--12---------|
A|--9--9----0---0--0--0---0---0---0----------|
E|----------10--9--10-9---10--9---10---------|


e|----------------------------------------------------|2x
b|-----10--12--10------10--12-10------10--12--12--14--|
g|--11--------------11-------------11-----------------|
D|----------------------------------------------------|
A|----------------------------------------------------|
E|----------------------------------------------------|

e|----17---17-17--17-17--17--17--17---------|2x
b|------------------------------------14----|
g|------------------------------------------|
D|------------------------------------------|
A|------------------------------------------|
E|------------------------------------------|

e|-------------------------------------------|
b|-------------------------------------------|
g|--11-11--11-----7--7------9----------------|
D|--0--0---0------0--0------0----------------|
A|--9--9---9------5--5------7----------------|
E|-------------------------------------------|

e|-------------------------------------------|
b|-------------------------------------------|
g|--11-11------------------------------------|
D|--0--0----12--11-12-11--12--11--12---------|
A|--9--9----0---0--0--0---0---0---0----------|
E|----------10--9--10-9---10--9---10---------|


e|----------------------------------------------------|2x
b|-----10--12--10------10--12-10------10--12--12--14--|
g|--11--------------11-------------11-----------------|
D|----------------------------------------------------|
A|----------------------------------------------------|
E|----------------------------------------------------|


e|-------------------------------------------------------------------|
b|---------------10b-10b--------------10b-10b-10b----------10b--10b--|
g|--9b--9b--9b-------------9b--9b-9b----------------9b-9b------------|
D|-------------------------------------------------------------------|
A|-------------------------------------------------------------------|
E|-------------------------------------------------------------------|

e|--------------------------------------|
b|--14---12--10--12--14--12--10---------|
g|--------------------------------------|
D|--------------------------------------|
A|--------------------------------------|
E|--------------------------------------|

e|-------------------------------------------------------------|
b|-----------12--10-10-10----------12--10-10--------12-10-10---|
g|--9b-9--9----------------9b-9-9------------9b-9-9------------|
D|-------------------------------------------------------------|
A|-------------------------------------------------------------|
E|-------------------------------------------------------------|

e|--------------------------------------------|
b|----14--12--10-10--12-12--14----------------|
g|--------------------------------------------|
D|--------------------------------------------|
A|--------------------------------------------|
E|--------------------------------------------|


e|---------------------------------------|
b|-----------12--10b-10-10---------------|
g|---9b-9-9------------------9b-9-9------|
D|---------------------------------------|
A|---------------------------------------|
E|---------------------------------------|


This song just takes awhile to know where to play. I pretty much tabbed everything in 
Listen to song please.
Tap to rate this tab
# A B C D E F G H I J K L M N O P Q R S T U V W X Y Z