Song name
# A B C D E F G H I J K L M N O P Q R S T U V W X Y Z

Modest Mouse - Mice Eat Cheese tab

Mice Eat Cheese by Modest Mouse
Tabbed by: Paul William Smith XII (mandated by Justin DeMuro)

There were no tabs for this [amazing song] and I thought it was extremely frustrating so 
asked my good friend Paul to tab them for me and he had it done in no time. Now 
can reap the benefits! Enjoy!


Intro and Verse:
e|--------------------------------|
B|--------------------------------|
G|--------------------------------| (x13)
D|-0---0---4---5------------------|
A|---0---0---5---5----------------|
E|-----------------3--------------|

Part 2:
e|--------------------------------|
B|--------------------------------|
G|--------------------------------| (x3)
D|----------(12)-----(12)---------|
A|-----(12)------(7)------(12)----|
E|-(7)----------------------------|

Part 3:
e|-(12)-(7)--(12)-(7)-------------|
B|-(12)-(7)--(12)-(7)-------------|
G|-(12)-(7)--(12)-(7)-------------| (listen to song for strumming pattern)
D|--------------------------------|
A|--------------------------------|
E|--------------------------------|


Lyrics:

What are you doing here?
I came to get a piece of factory-outlet beer then...
I go home
I don't feel like I wanna be by myself

Mice eat cheese
And for the most part, they do as they please, but...
Cat comes home
Mice don't feel very free to walk around
Walk around...


Note: "()" denotes harmonics
Tap to rate this tab
# A B C D E F G H I J K L M N O P Q R S T U V W X Y Z