Song name
# A B C D E F G H I J K L M N O P Q R S T U V W X Y Z

Modest Mouse - Space Travel Is Boring tab

SPACE TRAVEL IS BORING

by Modest Mouse

from This is a Long Drive for Someone With Nothing to Think About (1996)

Tabbed by: devin miller

Email: irish__nugget@hotmail.com

Tuning: Standard EADGBe

| /   slide up
| \   slide down
| h   hammer-on
| \n/ whammy bar dip (n = amount bent)
| br  bend release (use the whammy bar/bridge strings)
| x   dead note

----------PART 1 OF SONG----------

CHORDS:

     G   C5   A5
e|----------------|
B|---8------------|
G|---0------------|
D|---9---10---7---|
A|--10---10---7---|
E|-------8----5---|

G
Won herself a pass to some far off moon

       G
It was second class, but what's to lose and

C5
Lookin' out her window she could more than assume

         A5
That you can't see air or time.

                   Gadd9
e|----------------------------------------|
B|---8--8--8--8-----10---8--8---8---------|
G|---0--0--0--0---0--0---0--0---0---0--0--|
D|---9--9--9--9---9--9---9--9---9---9--9--|
A|--10-10-10-10--10-10--10-10--10--10-10--|
E|----------------------------------------|

     D             Dadd9
e|----------------------------------------|
B|---8--8--8--8-----10---8--8---8---------|
G|---0--0--0--0---0--0---0--0---0---0--0--|
D|---x--x--x--x---x--x---x--x---x---x--x--|
A|---9--9--9--9---9--9---9--9---9---9--9--|
E|--10-10-10-10--10-10--10-10--10--10-10--|

  ---------------------------------------------|
  ---------------------------------------------|
  ---------------------------------------------|
  --10-10-10--10-10-10-10\7--7--7--7-7--7------|
  --10-10-10--10-10-10-10\7--7--7--7-7--7--0---|
  --8--8--8---8--8--8--8-\5--5--5--5-5--5--0---|


----------PART 2 OF SONG----------

CHORDS:

     G   D   C5   A5
e|--------------------|
B|---8---8---0--------|
G|---0---0---x--------|
D|---9---x---10---7---|
A|--10---9---10---7---|
E|------10---8----5---|

          G
She's the only rocketeer in the whole damn place

     D
They gave her a mirror so she could take to her face

    C5
She still got plenty lonely but that's usually the case with

A5
Time, time , time.


e|--------------------------------------|
B|---8--8--8--8-----10br-----8----------|
G|---0--0--0--0---0--0br-----0----0--0--|
D|---9--9--9--9---9--9br-----9----9--9--|
A|--10-10-10-10--10-10br----10---10-10--|
E|--------------------------------------|

e|--------------------------------------|
B|---8--8--8--8-----10br------8---------|
G|---0--0--0--0---0--0br------0---0--0--|
D|---x--x--x--x---x--x--------x---x--x--|
A|---9--9--9--9---9--9br------9---9--9--|
E|--10-10-10-10--10-10br-----10--10-10--|

  ---------------------------------------------|
  ---------------------------------------------|
  ---------------------------------------------|
  --10-10-10--10-10-10-10\7--7--7--7-7--7------|
  --10-10-10--10-10-10-10\7--7--7--7-7--7--0---|
  --8--8--8---8--8--8--8-\5--5--5--5-5--5--0---|


----------PART 3 OF SONG----------

CHORDS:

     G   D   C5   A5
e|--------------------|
B|---8---8---0--------|
G|---0---0---x--------|
D|---9---x---10---7---|
A|--10---9---10---7---|
E|------10---8----5---|

    G\0.5/
She started hearing voices sometime in June

    D\0.5/
She knew she could go crazy but didn't think that soon

        C5\0.5/
Now she doesn't feel lonely but she'd just as soon

A5   A5   A5
Try, try, try.


----------OUTRO----------

e|---------------------------------------------------------|
B|---------------------------------------------------------|
G|--------5-5---------------5-5-5-5------------------------|
D|--5--5--5-5---3-----5-5-5-5-5-5-5-3-3-3-2h3-2---2--------|
A|--5--5--3-3---3-----5-5-5-3-3-3-3-3-3-3-------3---3/-----|
E|--3--3--------1-----3-3-3---------1-1-1------------------|

e|---------------------------------------------------------|
B|---------------------------------------------------------|
G|--------5-5---------------5-5-5-5------------------------|
D|--5--5--5-5---3-----5-5-5-5-5-5-5-3-3-3-2h3-2--2h3-2-----|
A|--5--5--3-3---3-----5-5-5-3-3-3-3-3-3-3--------------3---|
E|--3--3--------1-----3-3-3---------1-1-1------------------|

e|---------------------------------------------------------|
B|---------------------------------------------------------|
G|--------5-5---------------5-5-5-5------------------------|
D|--5--5--5-5---3-----5-5-5-5-5-5-5-3-3-3-2h3-2---2h3-0----|
A|--5--5--3-3---3-----5-5-5-3-3-3-3-3-3-3-------3----------|
E|--3--3--------1-----3-3-3---------1-1-1------------------|

e|----------------------|
B|----------------------|
G|-------5-5------------|
D|--5--5-5-5----3-------|
A|--5--5-3-3----3-------|
E|--3--3--------1-------|

Another one of isaac's hidden gems

====================================================================
Tap to rate this tab
 
# A B C D E F G H I J K L M N O P Q R S T U V W X Y Z