Song name
# A B C D E F G H I J K L M N O P Q R S T U V W X Y Z

Modest Mouse - Dashboard tab

Dashboard - Modest Mouse

Standard Tuning (E-A-D-G-B-E)

Intro
E-9----7-------7--9----5----3-------3-------------------5---------------|
B-7----7-------7--7----3----3-------3----5/7----5-------5----5--7----5--|
G-7----7-------7--7----4----4-------4----4/6----6-------6----6--6----6--|
D-----------------------------------5----5/7----7-------7----7--7----7--|
A----------------------------------------------------0------------------|
E-----------7--------------------3--------------------------------------|

E----5---------------------------3----3-----3-------------------5-------|
B----5------8----7-------7--8----3----3-----3----5/7----5-------5----5--|
G----6------7----7-------7--7----4----4-----4----4/6----6-------6----6--|
D----7------9----9-------9--9--------------------5/7----7-------7----7--|
A-0----------------------------------------------------------0----------|
E---------------------7------------------3------------------------------|

E--------------5------9----7-------7--9----5----3-------3--5------------|
B-7----5-------5------7----7-------7--7----3----3-------3--3--5/7----5--|
G-6----6-------6------7----7-------7--7----4----4-------4--4--4/6----6--|
D-7----7-------7----------------------------------------------5/7----7--|
A-----------0-----------------------------------------------------------|
E-------------------------------7--------------------3------------------|

E------5--------------------5-------------------------------------------|
B------5----5--7----5-------5-------------------------------------------|
G------6----6--6----6-------6-------------------------------------------|
D------7----7--7----7-------7-------------------------------------------|
A---0--------------------0----------------------------------------------|
E-----------------------------------------------------------------------|

The rhythm guitar continues much like the intro, with slight variation.

Lead Riff (slight variation throughout song)
E-----------------------------------------------------------------------|
B-----------------------------------------------------------------------|
G-9--9--9-9-9--7-----9----9--9--9-9-9--7--------------------------------|
D-----------------------------------------------------------------------|
A-----------------------------------------------------------------------|
E-----------------------------------------------------------------------|

Chorus
E--0--0--0--0--0--0-----------------7------------7------------3---------|
B-10-10-10-10-10-10-----------------7------------7------------3---------|
G--9--9--9-11-11--9---(x2)----------7------------7------------4---------|
D-11-11-11-11-11-11-----------9--9--9--9-9-9--9--9--9-9-5--5--5--5-5-5--|
A--0--0--0--0--0--0-----------9--9-----9-9-9--9-----9-9-5--5-----5-5-5--|
E--0--0--0--0--0--0-----------7--7-----7-7-7--7-----7-7-3--3-----3-3-3--|

E----3------------------------------------------------------------------|
B----3------------------------------------------------------------------|
G----4------------------------------------------------------------------|
D-5--5--5-5-7-----------------------------------------------------------|
A-5-----5-5-7-----------------------------------------------------------|
E-3-----3-3-5-----------------------------------------------------------|

In that second part of the chorus, I'm not sure thats EXACTLY the way it's
strummed - how I strum it - otherwise it's just a Bm chord and a G chord.

If you'd just like to strum along with the song, the chords for
the whole thing are: Bm, G, A

Comments and/or suggestions can go to kyle.kalutkiewicz@gmail.com
Thanks to 'degaspiv'
Tap to rate this tab
 
# A B C D E F G H I J K L M N O P Q R S T U V W X Y Z