Song name
# A B C D E F G H I J K L M N O P Q R S T U V W X Y Z

Modest Mouse - Heart Cooks Brain tab

"Heart Cooks Brain"
The Lonesome Crowded West
Modest Mouse
tabbed by myslothdied

i thought i'd take a poke at this classic since i haven't encountered any that seemed 
right. this one is kind of hard to get down smoothly, but once you do it feels warm in 
belly.

intro:
e-17-17-17-17-17----17--17--17--17--17--17--17---|
B------------------------------------------------|
G------------------------------------------------|
D------------------------------------------------|
A-----------------15--14--12--14--15--15--15-----|
E------------------------------------------------|


this is pretty much the main riff, slight, easily identified variations:
e------------3-----------------------------3-------3--------|
B-0-3-5-0-3-5-5-0-3-5-0-3-5-0-3-0-3-5-0-3-5-5-0-3-5-5-3-0-3-|
G-----------------------------------------------------------|
D-----------------------------------------------------------|
A-----------------------------------------------------------|
E-----------------------------------------------------------|

occaisionally this comes in:
e--5-3p0-3--------|
B-------5-5p3-0-3-|
G-----------------|
D-----------------|
A-----------------|
E-----------------|

verse (roughly- be heavy on the strings; again, variants):
e-----------------------------|
B-x-x-x-x/x--x-x-x-x/x-x-x/x--|
G-7-7-7-7/9--9-9-9-9/7-7-7/5--|
D-x-x-x-x/x--x-x-x-x/x-x-x-7--|
A-----------------------------|
E-----------------------------|

now go find a dj and start the modest mouse grill cooking
Tap to rate this tab
 
# A B C D E F G H I J K L M N O P Q R S T U V W X Y Z