Guitaretab - guitar tabs
Song name
# A B C D E F G H I J K L M N O P Q R S T U V W X Y Z

Modest Mouse - Missed The Boat tab

ok, first tab ever, might not be correct but i've had a crack...

intro
e|-2h3p2-----2h3p2-----2h3p2-----2--------------------------------------|
B|-------3-3-------3-3-------3-3--------2h3p2-----2h3p2-----2h3p2-----3-| 
G|--------------------------------------------4-4-------4-4-------4-4---|  
D|----------------------------------------------------------------------|
A|----------------------------------------------------------------------|
E|----------------------------------------------------------------------|


e|-2h3p2-----2h3p2-----2h3p2-----2--------------------------7-7-7-7-7-9--|
B|-------3-3-------3-3-------3-3-------2h3p2-----2h3p2------8-8-8-8-8-10-|
G|-------------------------------------------4-4-------4-4--7-7-7-7-7-9--|
D|-----------------------------------------------------------------------|
A|-----------------------------------------------------------------------|
E|-----------------------------------------------------------------------|
[ Tab from: http://www.guitaretab.com/m/modest-mouse/85566.html ]
verse - repeated
e|-2h3p2-----2h3p2-----2h3p2-----2--------------------------------------|
B|-------3-3-------3-3-------3-3--------2h3p2-----2h3p2-----2h3p2-----3-| 
G|--------------------------------------------4-4-------4-4-------4-4---|  
D|----------------------------------------------------------------------|
A|----------------------------------------------------------------------|
E|----------------------------------------------------------------------|

chorus - (oh & we carried it all so well...) 
E|--2-2-2---2--/9--9--9---9----7-7-7--7---7-7-7--7------------------|
B|--3-3-3---3--/10-10-1010----8-8-8-8---8-8-8--8------------------| 
G|--2-2-2---2--/9--9--9---9----7-7-7--7---7-7-7--7------------------|
D|--0-0-0---0-------------------------------------------------------|
A|------------------------------------------------------------------|
E|------------------------------------------------------------------|

E|--2-2-2---2--/9--9--9---9----7-7-7--9--9--10-10--7-7-7-9--9--10-10-|
B|--3-3-3---3--/10-10-10-10---8-8-8-10-10-10-10--8-8-8-10-10-10-10-| 
G|--2-2-2---2--/9--9--9---9----7-7-7--9--9--9--9---7-7-7-9--9--9--9--|
D|--0-0-0---0--------------------------------------------------------|
A|-------------------------------------------------------------------|
E|-------------------------------------------------------------------|

feel free to rate well!
Related for Missed The Boat tab