Song name
# A B C D E F G H I J K L M N O P Q R S T U V W X Y Z

Modest Mouse - Grey Ice Water tab

GREY ICE WATER
by Modest Mouse
from "Building Nothing out of Something"

Tab by Devin Miller
e-mail: irish__nugget@hotmail.com

Tuning: Standard EADGBe

Legend:
| s  slide up
| p  pull-off
| ~  vibrato
| +  natural harmonic
| x  dead note


INTRO

guitar 1:

e|-----3--3-0------------3--3-0----------3--5-3p2-3p2p0-----3--2-3-2-----|
B|-------------3--0------------------------------------------------------|
G|-------------------------------0------------------------------------0--|
D|-----------------------------------------------------------------------|
A|-3-----------------3---------------------------------------------------|
E|-----------------------------------3-------------------3---------------|

guitars 2 & 3:

e|------------------|     |------------------|
B|------------------|     |------------------|
G|------------------|     |------------------|
D|------------------|     |------------------|
A|-3~3~3~3~3~3~3~3~-|     |------------------|
E|------------------| x2  |-3~3~3~3~3~3~3~3~-| x2


VERSE

all guitars:

e|------------------|     |------------------|
B|------------------|     |------------------|
G|------------------|     |------------------|
D|------------------|     |------------------|
A|-3~3~3~3~3~3~3~3~-|     |------------------|
E|------------------| x2  |-3~3~3~3~3~3~3~3~-| x2


REPEAT INTRO/VERSE


INTERLUDE

guitar 1:

e|-------------------------------------------------------------------------|
B|-5-----------------------------------------------------------------------|
G|---5--5--5--5--5--5--5-0-------------------------------------------------|
D|--------------------------5-5-5-x-x-5s7-7-7-x-x-7s9-9-9s12-12-12-x-x-9---|
A|--------------------------5-5-5-x-x-5s7-7-7-x-x-7s9-9-9s12-12-12-x-x-9---|
E|--------------------------3-3-3-x-x-3s5-5-5-x-x-5s7-7-7s10-10-10-x-x-7---|

guitar 2:

e|-------------------------------------------------------------------------|
B|-5----0----5----0--5-----------------------------------------------------|
G|---5-----5--5--5--5-5-5-0------------------------------------------------|
D|--------------------------5-5-5-x-x-5s7-7-7-x-x-7s9-9-9s12-12-12-x-x-9---|
A|--------------------------5-5-5-x-x-5s7-7-7-x-x-7s9-9-9s12-12-12-x-x-9---|
E|--------------------------3-3-3-x-x-3s5-5-5-x-x-5s7-7-7s10-10-10-x-x-7---|

guitar 3:

only play the last half (strums)


REPEAT INTRO RIFFS


OUTRO

guitar 1 (centre of headphones):

e|--3---3---3---3---5--3-2--|
B|--------------------------|
G|--------------------------|
D|--------------------------|
A|--------------------------|
E|--------------------------|

guitar 2 (left headphone):

e|-----------8---7--------8-7------|
B|-5--s7--8----8---8-10-0-----8-7--|
G|---------------------------------|
D|---------------------------------|
A|---------------------------------|
E|---------------------------------|

guitar 3 (right headphone):

e|---------------------------|
B|---------------------------|
G|-7+--5+--3+---7+--5+--3+---|
D|---------------------------|
A|---------------------------|
E|---------------------------|
Tap to rate this tab
 
# A B C D E F G H I J K L M N O P Q R S T U V W X Y Z