Song name
# A B C D E F G H I J K L M N O P Q R S T U V W X Y Z

Modest Mouse - Steam Engenius tab

Title: Steam Engenius (track 11)
Artist: Modest Mouse
Album: We Were Dead Before the Ship Even Sank

tabbed by Steve "SPiV" Perreira IV


Guitar I - Isaac Brock
Guitar II - Johnny Marr


--

Guitar I - Isaac Brock


intro
e-----------|--------------------------|--------------------------|
B-----------|--5--5--x-5--5-5----------|--5--5--x-5--5-5----------|
G-----------|--6--6--x-6--6-6----------|--6--6--x-6--6-6----------|
D-----------|--7--7--x-7--7-7----------|--7--7--x-7--7-7----------|
A-----------|--------------------------|------------------4h5-5p4-|
E--0--4h5-5-|-----------------0--4h5-5-|--------------------------|

e-----------------------|------------------------|
B-----------------------|------------------------|
G-----------------------|------------------------|
D----------2b-----------|-----------2b-----------|
A----4---4-----4--2p0-0-|----4---4------4--------|
E--2---2----------------|--2---2-----------0-4-5-|


verse
e-----------------------|-------------------------|
B--5--5--x-5--5-5-------|--5--5--x-5--5-5---------|
G--6--6--x-6--6-6-------|--6--6--x-6--6-6---------|
D--7--7--x-7--7-7-------|--7--7--x-7--7-7---------|
A-----------------------|-----------------4h5-5p4-|
E-----------------0-4h5-|-------------------------|

e-----------------------|------------------------|
B-----------------------|------------------------|
G-----------------------|------------------------|
D----------2b-----------|-----------2b-----------|
A----4---4-----4--2p0-0-|----4---4------4--------|
E--2---2----------------|--2---2-----------0--4--|


chorus
e-----------------------|---------------------------|
B-----------------------|---------------------------|
G-----------------------|---------------------------|
D--7--7--x-7--7-7-4--6--|--7--7--x-7--7-7-11-11--11-|
A--7--7--x-7--7-7-4--6--|--7--7--x-7--7-7-11-11--11-|
E--5--5--x-5--5-5-2--4--|--5--5--x-5--5-5-9--9---9--|

e-------------------------|-----------------------|
B-------------------------|-----------------------|
G-------------------------|-----------------------|
D--4--4--4-4-4-4--11--11--|--4--4--4-4-4-4--4--6--|
A--4--4--4-4-4-4--11--11--|--4--4--4-4-4-4--4--6--|
E--2--2--2-2-2-2--9---9---|--2--2--2-2-2-2--2--4--|


pre-bridge harmonic
e---------|
B---------|
G---------|
D--[5]----|
A---------|
E---------|
bend with floyd rose


--

Guitar II - Johnny Marr

verse
e--7-7-7-5----|--7-7-7-5----|--4-4-4-2----|
B--7-7-7-5----|--7-7-7-5----|--4-4-4-2----|
G--7-7-7-6----|--7-7-7-6----|--4-4-4-3----|
D--9-9-9-7----|--9-9-9-7----|--------4----|
A-------------|-------------|-------------|
E-------------|-------------|-------------|


chorus
e-----------------------------------|-----------------------------------------|
B-----------------------------------|-----------------------------------------|
G--/9--9-7-7-6-6-6--/9--9-7-7-6-6-6-|-----------------------------------------|
D-----------------------------------|--/11--11-9-9-7-7-7--/11--11-9-7-7-7--7--|
A-----------------------------------|-----------------------------------------|
E-----------------------------------|-----------------------------------------|
*the /9's could be 7b9 if the slides don't suit you*


bridge
e-----------------|----------------|------------------|
B-----------------|----------------|------------------|
G--7--/9--7--6----|--/6--4--2----/-|--4---/6--4--2----|
D-----------------|----------------|------------------|
A-----------------|----------------|------------------|
E-----------------|----------------|------------------|

e-----------------------------------|
B-----------------------------------|
G--/9--7--6---/9--7--6---6--4--2----|
D-----------------------------------|
A-----------------------------------|
E-----------------------------------|


verse variation (after bridge ONLY)
e--7-7-7-5-xx-5-x-5--5-5-|--7-7-7-5-xx-5-x-5--5-5-|--4-4-4-2-xx-2-x-2--2-2-|
B--7-7-7-5-xx-5-x-5--5-5-|--7-7-7-5-xx-5-x-5--5-5-|--4-4-4-2-xx-2-x-2--2-2-|
G--7-7-7-6-xx-6-x-6--6-6-|--7-7-7-6-xx-6-x-6--6-6-|--4-4-4-3-xx-3-x-3--3-3-|
D--------7-xx-7-x-7--7-7-|--------7-xx-7-x-7--7-7-|--------4-xx-4-x-4--4-4-|
A------------------------|------------------------|------------------------|
E------------------------|------------------------|------------------------|


verse variation (played over Brock's riff)
e--7-7-7-5----|--7-7-7-5----|--4-4-4-----------------------|------------------------|
B--7-7-7-5----|--7-7-7-5----|--4-4-4---2---2--5b--2--------|----2---2--5b--2--------|
G--7-7-7-6----|--7-7-7-6----|--4-4-4-----------------4b--2-|------------------4b--2-|
D--9-9-9-7----|--9-9-9-7----|--------4---4-----------------|--4---4-----------------|
A-------------|-------------|------------------------------|------------------------|
E-------------|-------------|------------------------------|------------------------|


--

tabbed by Steve "SPiV" Perreira IV
Tap to rate this tab
 
# A B C D E F G H I J K L M N O P Q R S T U V W X Y Z