Song name
# A B C D E F G H I J K L M N O P Q R S T U V W X Y Z

Modest Mouse - March Into The Sea tab

Title: March into the Sea
Artist: Modest Mouse
Album: We Were Dead Before the Ship Even Sank

tabbed by Steve "SPiV" Perreira IV


--

Guitar - Johnny Marr


main riff
e-----7------7------7-|--------10------12----12-|-----12-9-------9---|
B-------7------7------|--7--------10------------|--------------------|
G---------------------|--------------9----12----|--12------11-11-----|
D--/9-----/9------9---|----/12------------------|--------------------|
A---------------------|-------------------------|--------------------|
E---------------------|-------------------------|--------------------|

e-----7------7------7-|--------10--------------|--------------------|
B-------7------7------|--7--------10-----------|--------------------|
G---------------------|--------------0-9-7-0---|----9-7-11p9--------|
D--/9-----/9------9---|----/12-----------------|--7----------12-11--|
A---------------------|------------------------|--------------------|
E---------------------|------------------------|--------------------|

e-----7------7------7-|--------10------12----12-|-----12----9---9~~--|
B-------7------7------|--7--------10------------|-------------9------|
G---------------------|--------------9----12----|--12----11----------|
D--/9-----/9------9---|----/12------------------|--------------------|
A---------------------|-------------------------|--------------------|
E---------------------|-------------------------|--------------------|


verse
e---------------|---------------|-----------|
B-------5-------|----5----------|-----------|
G-----7----7----|--7---7--------|------6----|
D--7---------7--|--------7-5----|---------5-|
A---------------|---------------|--4--------|
E---------------|---------------|-----------|

e---------------|---------------|-----------|
B-------5-------|----5----------|-----------|
G-----7----7----|--7---7-0------|------6b---|
D--7---------7--|----------5----|-----------|
A---------------|---------------|--4--------|
E---------------|---------------|-----------|

e---------------|---------------|-----------|
B-------5-------|----5----------|-----------|
G-----7----7----|--7---7--------|-----------|
D--7---------7--|--------7-5----|-----------|
A---------------|---------------|--4~~~~~---|
E---------------|---------------|-----------|


pre-chorus
e--------0-------|-------3--------|--3----2----0-----|
B----3------3----|----3---------3-|-----3----3-----3-|
G------0---------|--0---------4---|------------------|
D----------------|----------5-----|------------------|
A--2----------2--|----------------|------------------|
E----------------|----------------|------------------|


bridge
e--------------------|-------------------|------------------------|
B--------------------|-------------------|------------------------|
G--------------------|-------------------|------------------------|
D----0-----0---0---0-|------0-----0------|--0-------0-------------|
A--2---2-4---4---5---|--5-7---7-9---9-12-|----12-14---14-16-16-16-|
E--------------------|-------------------|------------------------|

e--------------------|-------------------|-----------------------|
B--------------------|-------------------|-----------------------|
G--------------------|-------------------|-----------------------|
D----0-----0---0---0-|------0-----0------|--0-------0-------0----|
A--2---2-4---4---5---|--5-7---7-9---9-12-|----12-14---14-16---16-|
E--------------------|-------------------|-----------------------|

e--------------------|-------------------|-----------------------|
B--------------------|-------------------|-----------------------|
G--------------------|-------------------|-----------------------|
D----0-----0---0---0-|------0-----0------|--0-------0-------0----|
A--2---2-4---4---5---|--5-4---4-9---9-12-|----12-14---14-16---16-|
E--------------------|-------------------|-----------------------|
*let 0's ring... repeat till end of song*


--

tabbed by Steve "SPiV" Perreira IV
Tap to rate this tab
 
# A B C D E F G H I J K L M N O P Q R S T U V W X Y Z