Song name
# A B C D E F G H I J K L M N O P Q R S T U V W X Y Z

Modest Mouse - Weve Got Everything tab

Title: We've Got Everything
Artist: Modest Mouse
Album: We Were Dead Before the Ship Even Sank

tabbed by Steve "SPiV" Perreira IV


Guitar I - Isaac Brock
Guitar II - Johnny Marr


--

Guitar I - Isaac Brock


intro
e-----------------|-----------------|------------------|-----------------|
B-----------------|-----------------|------------------|-----------------|
G--12--9--7/9--5--|--12--9--7/9--5--|--5-5-5-55-5-5--5-|--12--9--7/9--5--|
D-----------------|-----------------|------------------|-----------------|
A-----------------|-----------------|------------------|-----------------|
E-----------------|-----------------|------------------|-----------------|

e-----------------|--------------------|
B-----------------|--------------------|
G--12--9--12-9-5--|--5-5-5-5b-5b-5b-5b-|
D-----------------|--------------------|
A-----------------|--------------------|
E-----------------|--------------------|


chorus "We've got everything..." etc...
e-----------------|
B-----------------|
G--12--9--7-/9-5--|
D-----------------|
A-----------------|
E-----------------|x5


minor riff variation (chorus after bridge)
e-----------------|--------------------------|
B-----------------|--1-5p1-1-5p1-1-5p1-1-5p1-|
G--12--9--7-/9-5--|--------------------------|
D-----------------|--------------------------|
A-----------------|--------------------------|
E-----------------|--------------------------|


--

Guitar II - Johnny Marr


intro/main riff/chorus
e-----------------------------------|--------------------------------|
B------------5----------------------|------------5-------------------|
G------7---5---5--------3-2---5-----|------7---5---5------3-2--0-0-0-|
D----7---7-------5----3---------5-5-|----7---7----------3------------|
A--5----------------1-------3-------|--5--------------1--------------|
E-----------------------------------|--------------------------------|

e-----------------------------------|--------------------------------|
B------------5----------------------|--------------------------------|
G------7---5---5--------3-2---5-----|----------0-0--------------2----|
D----7---7-------5----3---------5-5-|------3-3-----3-3------2-----2--|
A--5----------------1-------3-------|--1-1--------------0-0---0------|
E-----------------------------------|--------------------------------|


verse "if we carried it..."
e--------------------------------------|----------------------------------|
B----------13-------------13--13-------|----------13------------13--------|
G------14------14------14--------14----|------14------10------------------|
D-----------------------------------14-|--12-------------12-14-----12-10--|
A--15--------------15------------------|----------------------------------|
E--------------------------------------|----------------------------------|x2

e----------------------------------|----------------------------------|
B--15--13------13--15--13------13--|----------13------------13--------|
G----------14--------------14------|------14------10------------------|
D----------------------------------|--12-------------12-14-----12-10--|
A----------------------------------|----------------------------------|
E----------------------------------|----------------------------------|

e----------------------------------|
B--15--13------13--15--13------13--|
G----------14--------------14------|
D----------------------------------|
A----------------------------------|
E----------------------------------|

funky chords...
e--x-x-6--6--x-x-x-x-8---8---x-x-|
B--x-x-6--6--x-x-x-x-8---8---x-x-|
G--x-x-7--7--x-x-x-x-9---9---x-x-|
D--x-x-8--8--x-x-x-x-10--10--x-x-|
A--------------------------------|
E--------------------------------|
(after first verse and after bridge)


outro variation on main riff
e-----------------------------------|--------------------|
B------------5----------------------|--------------------|
G------7---5---5--------3-2---5-----|--7-5--------00-0-0-|
D----7---7-------5----3---------5-5-|------7-------------|
A--5----------------1-------3-------|--------8-5---------|
E-----------------------------------|--------------------|

last riff end on
e---------------|
B---------------|
G--7-5----------|
D------7---7----|
A--------8-5----|
E---------------|
Tap to rate this tab
# A B C D E F G H I J K L M N O P Q R S T U V W X Y Z