Song name
# A B C D E F G H I J K L M N O P Q R S T U V W X Y Z

Modest Mouse - Fly Trapped In A Jar tab

Title: Fly Trapped in a Jar
Artist: Modest Mouse
Album: We Were Dead Before the Ship Even Sank
tabbed by Steve "SPiV" Perreira IV


note. I've spent too long trying to get Marr's funky chords in the
second-half of the song. If someone can contribute, I'll add it to
this tab and give you full credit for all the work contributed, such
as the Dashboard tab. Until then, enjoy what's here...



Guitar I - Isaac Brock
Guitar II - Johnny Marr


--

'fly' intro (could be Marr or Brock, or synth, I dunno.)
e-----------------------|-----------------------|
B-----------------------|-----------------------|
G----------5/7\5--------|-----------------------|
D-----7-----------5-/7--|--2h3--3---------------|
A--5--------------------|----------3p2-3--/5----|
E-----------------------|-----------------------|


--

Guitar I - Isaac Brock


[part.1]

main riff
e--------------------|-------------------|
B--------------------|-------------------|
G----7h9-/10---------|-------------------|
D--7----------10--8--|--5h7-----5h7------|
A--------------------|------5-5-----5----|
E--------------------|----------------5--|


[part.2]

variation 1
e--------------------|----------------------------|
B--------------------|----------------------------|
G--9-9-x-xx-9-9-x-xx-|--6--6--7--7--9--9--12--12--|
D--x-x-x-xx-x-x-x-xx-|--x--x--x--x--x--x--x---x---|
A--7-7-x-xx-7-7-x-xx-|--4--4--5--5--7--7--10--10--|
E--------------------|----------------------------|

variation 2
e--------------------|--------------------------|
B--------------------|--------------------------|
G--9-9-x-xx-9-9-x-xx-|--7--7--6--6--5--5--4--3--|
D--x-x-x-xx-x-x-x-xx-|--x--x--x--x--x--x--x--x--|
A--7-7-x-xx-7-7-x-xx-|--5--5--4--4--3--3--2--1--|
E--------------------|--------------------------|


--

Guitar II - Johnny Marr


[part.1]
e-----------------------|-------------------|
B--------------------6b-|-------------------|
G-----------------------|--7--7--6--6--5----|
D--7--7--7--6--6--5-----|-------------------|
A-----------------------|-------------------|
E-----------------------|-------------------|

e-----------------------------|--------------------------|
B--/10--10--10----------8--8--|--8-----------------------|
G---------------10------------|-----5--5--5--4--4--3--3--|
D-----------------------------|--------------------------|
A-----------------------------|--------------------------|
E-----------------------------|--------------------------|

e--------------------------|-----------------------|----------------------------|
B-----------------------6b-|-----------------------|--10--10--10----------8--8--|
G--------------------------|------7--7--6--6--5----|--------------10------------|
D--7--7--7--7--6--6--5-----|-----------------------|----------------------------|
A--------------------------|-----------------------|----------------------------|
E--------------------------|-----------------------|----------------------------|

e--------------------------|--------------------------|-------------------------|
B--8-----------------------|--------------------------|-------------------------|
G-----5--5--5--4--4--3--3--|--------------------------|--------------------6b---|
D--------------------------|--7--7--7--7--7--7--7--0--|--7--7--7--7--7--0-------|
A--------------------------|--------------------------|-------------------------|
E--------------------------|--------------------------|-------------------------|

e-------------------------|-----------------------|------------------------|
B-------------------------|-----------------------|-------6----------6-----|
G--------------------6b---|--------6b---6b---6b---|----7-----7----7-----7--|
D--7--7--7--0--7--0-------|--7--7-----------------|------------------------|
A-------------------------|-----------------------|------------------------|
E-------------------------|-----------------------|------------------------|

e-------------------------|------------------------|-------------------------|
B-------6-----8-----6-----|-------6----------6-----|-------------------------|
G----7-----7-----7-----7--|----7-----7----7-----7--|----5--5--5--4--4--3--3--|
D-------------------------|------------------------|-------------------------|
A-------------------------|------------------------|-------------------------|
E-------------------------|------------------------|-------------------------|

e------------------------------|----------------17--------------|
B--------18------------18------|--------18--------------18------|
G----19------19----19------19--|----19------19------19------19--|
D------------------------------|--------------------------------|
A------------------------------|--------------------------------|
E------------------------------|--------------------------------|

e--17--17--17--------------------|----------------------------------|
B--------------18----20--20--20--|--20------------------------------|
G--------------------------------|------17--17--17--16--16--15--15--|
D--------------------------------|----------------------------------|
A--------------------------------|----------------------------------|
E--------------------------------|----------------------------------|

e--------------------------|------------------------|
B-----------------------6b-|------------------------|
G--------------------------|------7--7--6--6--5--5--|
D--7--7--7--7--6--6--5-----|------------------------|
A--------------------------|------------------------|
E--------------------------|------------------------|

e-----------------------------|--------------------------|
B--10--10--10--------8--8--8--|--8-----------------------|
G--------------10b------------|-----5--5--5--4--4--3--3--|
D-----------------------------|--------------------------|
A-----------------------------|--------------------------|
E-----------------------------|--------------------------|

e--------------------------|------------------------|--------------------------|
B-----------------------6b-|------------------------|--10--10--10--------------|
G--------------------------|------7--7--6--6--5--5--|--------------10b---------|
D--7--7--7--7--6--6--5-----|------------------------|--------------------------|
A--------------------------|------------------------|--------------------------|
E--------------------------|------------------------|--------------------------|


[part.2]

main chords/verse: n/a

interlude (after verse)
v1
e-----------------------------|------------------------|
B-----------------------------|------------------------|
G--/9----/11----/12----/19----|--12----7--6--5--4\3----|
D-----------------------------|------------------------|
A-----------------------------|------------------------|
E-----------------------------|------------------------|


pre-outro
e-----------------------|-------------------|
B--------------------6b-|-------------------|
G-----------------------|--7--7--6--6--5----|
D--7--7--7--6--6--5-----|-------------------|
A-----------------------|-------------------|
E-----------------------|-------------------|

e-----------------------------|--------------------------|
B--/10--10--10----------8--8--|--8-----------------------|
G---------------10------------|-----5--5--5--4--4--3--3--|
D-----------------------------|--------------------------|
A-----------------------------|--------------------------|
E-----------------------------|--------------------------|
Tap to rate this tab
# A B C D E F G H I J K L M N O P Q R S T U V W X Y Z