Song name
# A B C D E F G H I J K L M N O P Q R S T U V W X Y Z

Modest Mouse - Swy tab

-------------------------------------------------------------------------------
			     SWY - Modest Mouse
-------------------------------------------------------------------------------
Tabbed by: Chris Leisz
Email: reducedfatcreamy@yahoo.com

Tuning: Standard

Album: Sad Sappy Sucker

e|--00000-0------------------------------------------------------------------|
B|--11111-1------------------------------------------------------------------|
G|--00000-0--(3x)------------------------------------------------------------|
D|--33333-2------------------------------------------------------------------|
A|--33333-3------------------------------------------------------------------|
E|---------------------------------------------------------------------------|

e|--00000-00000---------0~~~-------------------------------------------------|
B|--11111-11111---------1~~~-------------------------------------------------|
G|--00000-00000--(5x)---0~~~-------------------------------------------------|
D|--33333-22222---------3~~~-------------------------------------------------|
A|--33333-33333---------3~~~-------------------------------------------------|
E|---------------------------------------------------------------------------|
                                Isaac does a slide thingy, then...
 end like this:
e|--000-0-----|
B|--111-1-----|
G|--000-0-----|
D|--333-2-----|
A|--333-3-----|
E|------------|

Listen to the song to get the strumming right,
and please rate, comment, & blah blah blah.

Lyrics:
you're no one
you're going nowhere
you got a fast car.
a e i o u and sometimes y
damn, that one's gonna suck

| /  slide up
| \  slide down
| h  hammer-on
| p  pull-off
| ~  vibrato
| +  harmonic
| x  Mute note
===============================================================================
Tap to rate this tab
# A B C D E F G H I J K L M N O P Q R S T U V W X Y Z