Song name
# A B C D E F G H I J K L M N O P Q R S T U V W X Y Z

Modest Mouse - The Waydown tab

Modest Mouse
The Waydown
The Fruit That Ate Itself

Riff 1
e----------------------------------------|
b----------------------------------------|
g--7-x-5-x-4-4-4444----------------------|
d--x-x-x-x-x-x-xxxx---777-x-5-5-5555-----|
a--5-x-3-x-2-2-2222---xxx-x-x-x-xxxx-----|
e---------------------555-x-3-3-3333-----|

Riff 2
e-------------------|
b-------------------|
g--7-5-4------------|
d---------7-9-5-----|
a-------------------|
e-------------------|

Riff 3
e------------------------------|
b------------------------------|
g------------------------------|
d--5-5-5-5-5-5-5-5-7/9-7-5-----|
a------------------------------|
e------------------------------|

Riff 4
e------------------------|
b------------------------|
g--7-5-4-5-4-------------|
d------------7-9-7-5-----|
a------------------------|
e------------------------|

Riff 1---4x
Riff 2---5x
Riff 3---4x
Riff 2---4x
Riff 3---4x
Riff 2---2x
Riff 4---2x
Riff 1---2x
Riff 2---2x

Questions? Email at Coldfry1@aol.com
Tap to rate this tab
# A B C D E F G H I J K L M N O P Q R S T U V W X Y Z