Song name
# A B C D E F G H I J K L M N O P Q R S T U V W X Y Z

Modestep - Sunlight chords

Highlighted       Show chord diagrams
-------------------------------------------------------------------------------
			     Sunlight - Modestep
-------------------------------------------------------------------------------
Tabbed by: Jason Easey
Email: Pumpkinmask@aol.com

Tuning: Standard



Am                      G             Em  G-F*
Put on those shades, and wave to yesterday, the sunlight hurts my eyes...


*Quick change


Also for those interested, I like to play the chorus heavy so I play it like this....

Drop D

e|---------------------------------------------------------------------------|
B|--10/--8---5/--8/-6--------------------------------------------------------|
G|--x----x---x---x--x--------------------------------------------------------|
D|--7/---5---2/--5/-3--------------------------------------------------------|
A|--7/---5---2/--5/-3--------------------------------------------------------|
D|--7/---5---2/--5/-3--------------------------------------------------------|

/=Slide

Hope this helps!
Tap to rate this tab
 
# A B C D E F G H I J K L M N O P Q R S T U V W X Y Z