Song name
# A B C D E F G H I J K L M N O P Q R S T U V W X Y Z

Modjo - What I Mean tab

Artist: Modjo
Song: What I Mean
Album: Modjo (2001)

Tab By Peppe


Intro
     Am          E
|--------0----------0--|
|------1----------3----|
|----2----------4------| x4
|----------------------|
|--0-------------------|
|-------------0--------|

Verse

Am - E


Pre-Chorus

      Dm       Am/C      Dm/B       E 
|--------1---------0---------1---------0---|
|------3---------1---------3---------0-----|
|----2---------2---------2---------1-------|
|--0---------------------------------------|
|------------3---------2-------------------|
|--------------------------------0---------|
      Dm       Am/C      E  
|--------1---------0-----0-----|
|------3---------1-------0-----|
|----2---------2---------1-----|
|--0---------------------2-----|
|------------3-----------2-----|
|------------------------0-----|


Chorus

Am - E


Pre-Solo

Repeat Intro x 4


Solo (During the solo, play Verse chords)

(02:26)
|----------------------------------------------------|
|---------------5---------5--------------------------|
|---------4-5-7-------7-5---4-4----5-4-----4---------|
|---(5)-7------------------------------7-6---7-------|
|----------------------------------------------7-7---|
|----------------------------------------------------|

(02:34)
|-----------------------------------|
|--------------------------5---6-5--|
|--------------4---5-4-7-5---7------|
|------5---7-5---7------------------|
|--8-7---8--------------------------|
|-----------------------------------|

(02:38)
  [      Very Fast      ]
|--------------------------------7-----------|
|------5-----5-----5-------6-------9---------|
|--4/5-----5-----5-----------7-------10-7-9--|
|--------7-----6-----7-9-------9-------------|
|--------------------------------------------|
|--------------------------------------------|

(02:42)
|------------5--121212-101010-------------------|
|----------5-------------------------------5-6--|
|------4-5---------------------------4-5-7------|
|----7---------------------------6-7------------|
|--7---------------------------7----------------|
|-----------------------------------------------|


Pre-Chorus After Solo

      Dm       Am/C      Dm/B       E 
|--------1---------0---------1---------0---|
|------3---------1---------3---------0-----|
|----2---------2---------2---------1-------| x2
|--0---------------------------------------|
|------------3---------2-------------------|
|--------------------------------0---------|

      Dm       Am/C      Dm/B       E 
|--------5---------5---------5---------4---|
|------3---------1---------3---------0-----|
|----2---------2---------2---------1-------|
|--0---------------------------------------|
|------------3---------2-------------------|
|--------------------------------0---------|
 
     Dm       Am/C       E  
|--------5---------5-----0-----|
|------3---------1-------0-----|
|----2---------2---------1-----|
|--0---------------------2-----|
|------------3-----------2-----|
|------------------------0-----|

Chorus Ad Libitum.



I think is 100% right. If you like it, please rate ;)

Any questions/corrections to: peppos@hotmail.com
Tap to rate this tab
# A B C D E F G H I J K L M N O P Q R S T U V W X Y Z