Song name
# A B C D E F G H I J K L M N O P Q R S T U V W X Y Z

Mods - Tore Tang tab

-------------------------------------------------------------------------------
                             Tore Tang - Mods
-------------------------------------------------------------------------------
Tabbed by: NugatiixHD
E-mail: NugatiixHD@gmail.com

Tuning: Standard

   G                           G

E--3---------------------------3----------------------------------|
B--3-0-3-3-0-3-3-0-3-3-1-0-----3-0-3-3-0-3-5-8-5-8-10-10-8-10-8-5-|
G--0-----------------------0-0-0----------------------------------|
D--0---------------------------0----------------------------------|
A--2---------------------------2----------------------------------|
E--3---------------------------3----------------------------------|
Tap to rate this tab
 
# A B C D E F G H I J K L M N O P Q R S T U V W X Y Z