Guitaretab - guitar tabs
Song name
# A B C D E F G H I J K L M N O P Q R S T U V W X Y Z

Moe - All Roads Lead To Home tab

This isn't perfect, but whatever, I don't really care

Band: moe.
Album: Sticks and Stones (2008)

the chords Chuck plays are A and Asus2

E---------------------------------|
B----2--3-3--2------2--3-2-3--2---|
G----2--2-2--2------2--2-2-2--2---|
D----2--2-2--2------2--2-2-2--2---|
A----0--0-0--0------0--0-0-0--0---|
E---------------------------------|
[ Tab from: http://www.guitaretab.com/m/moe/117629.html ]
then play something along the lines of this:
listen to this lick carefully to get the rhythm,
then you'll see that the notes match up pretty closely

E-------5-------------------------------------|
B---5^------5---3-----------------------------|
G--------------------4---2----------0----2~~~-|
D-----------------------------2/4-------------|
A---------------------------------------------|
E---------------------------------------------|
Related for All Roads Lead To Home tab
Advertisement will be closed in 10 seconds