Song name
# A B C D E F G H I J K L M N O P Q R S T U V W X Y Z

Moe - Brent Black tab

i dont know all of this song, but ill just put what i do

-10-9----9-----------------------------------------------------------|
------12---12-10-12-10-9---------------------------------------------|
-------------------------11--9h11--------------9---------------------|
----------------------------------11--9h11--11-----------------------|
---------------------------------------------------------------------|
---------------------------------------------------------------------|

do that twice, then the verses are

----------12---------------7-----------------------------------------|
-9h10h9--------------------------------------------------------------|
--------9-------6h7h6------------------------------------------------|
------------------------9--------------------------------------------|
---------------------------------------------------------------------|
---------------------------------------------------------------------|

then repeat the intro, and do another verse

they to some other stuff i dont know, then they do this

-9h10h9--------------------9h10h9---------------------------------------|
---------12--10-------------------12--10--------------------------------|
----------------12--9-9------------------12--9--------------------------|
------------------------------------------------------------------------|
------------------------------------------------------------------------|
------------------------------------------------------------------------|
and thats all i know of it...

if you have any questions, e mial me at gweedo53@aol.com
peace
sean
Tap to rate this tab
# A B C D E F G H I J K L M N O P Q R S T U V W X Y Z