Song name
# A B C D E F G H I J K L M N O P Q R S T U V W X Y Z

Moffatts - Love tab

Help us improve GuitareTab! Take a short survey!
Song: Love
Artist: Moffatts
Ear Tabber: Elvin Hayes Gentiles

Im not 100% sure about the intro of this song coz there are 2 guitars playing. and i 
figure out the plucking on D chord. Kindly rate.

e|--3~~~~--|
B|--3~~~~--|
G|--0~~~~--|
D|--0~~~~--|
A|--2~~~~--|
E|--3~~~~--|
(continued)
e|------3--------3--------3-------2h3-3--|
B|--------3--------3--------3------------|
G|-------------------------------2-------|
D|-------------0--------2------0---------|
A|----2------2--------3------------------|
E|--3------------------------------------|
(continued)
e|------3--------3--------3----------2~~--|
B|--------3--------3--------3------3-3~~--|
G|-------------------------------2---2~~--|
D|-------------0--------2------0-----0~~--|
A|----2------2--------3-------------------|
E|--3-------------------------------------|
Related for Love tab