Song name
# A B C D E F G H I J K L M N O P Q R S T U V W X Y Z

Mogwai - May Nothing But Happiness Come Through Your Door tab

Help us improve GuitareTab! Take a short survey!
-------------------------------------------------------------------------------
	May Nothing But Happiness Come Through Your Door - Mogwai
-------------------------------------------------------------------------------
Tabbed by: Wade Abbott
Email: wadeab@hotmail.com

Tuning: Standard

I'm quite hungover so I may make errors, but this is a pretty easy song 
so it should be easy to figure out. I'm tabbing a live version of the song from 
http://www.archive.org/details/mogwai2006-04-25.mbho.flac16

There's two guitars.

Intro 0:00-1:26 and 2:05-3:01
Guitar 1
e|---------------------------------------------------------------------------|
B|---------------------------------------------------------------------------|
G|----5----5----5----5-------------------------------------------------------|
D|----7----7----7----7-------------------------------------------------------|
A|---------------------------------------------------------------------------|
E|---------------------------------------------------------------------------|
Guitar 2
e|---------------------------------------------------------------------------|
B|--12-12-12-12-12-12-12--8--10--------6-6-6-6-6-6-6--3--5-------------------|
G|---------------------------------------------------------------------------|
D|---------------------------------------------------------------------------|
A|---------------------------------------------------------------------------|
E|---------------------------------------------------------------------------|
or
e|---------------------------------------------------------------------------|
B|--12-12-12-12-12-12-12--13--8--------6-6-6-6-6-6-6--3--5-------------------|
G|---------------------------------------------------------------------------|
D|---------------------------------------------------------------------------|
A|---------------------------------------------------------------------------|
E|---------------------------------------------------------------------------|
or
e|---------------------------------------------------------------------------|
B|--12-12-12-12-12-12-12--13--8--------6-6-6-6-6-6-6/8--5--5/6--3------------|
G|---------------------------------------------------------------------------|
D|---------------------------------------------------------------------------|
A|---------------------------------------------------------------------------|
E|---------------------------------------------------------------------------|
Harmonic Part 1:27-204 and 3:02-3:37 and 6:09-6:52
Guitar 1
e|--12+-------12+--13----------12+-----------12+-----------------------------|
B|-------12+-------------------------12+-------------------------------------|
G|--------------------------------------------------19+---17---16----14------|
D|---------------------------------------------------------------------------|
A|---------------------------------------------------------------------------|
E|---------------------------------------------------------------------------|
Guitar 2 (not entirely sure, sounds like they mess up a few times)
e|------------------5+----------------------5+-------------------------------|
B|------5+----------------5+-----------------------5+------------------------|
G|-----------5+-------------------------------------------5+-----------------|
D|---------------------------------------------------------------------------|
A|--------------------------------5+-----------------------------------------|
E|---------------------------------------------------------------------------|
Gradual Intensity Part 3:37-4:53
Both Guitars (one might be doing harmonics, but I can't hear it well enough)
e|---------------------------------------------------------------------------|
B|---------------------------------------------------------------------------|
G|--14-14-14--14--12-12-12--12--10-10-10-10-10-10---10--9--------------------|
D|--xx-xx-xx--xx--xx-xx-xx--xx--x--x--x--x--x--x----x---x--------------------|
A|--12-12-12--12--10-10-10--10--8--8--8--8--8--8----8---7--------------------|
E|---------------------------------------------------------------------------|
Slight Change 4:15
e|---------------------------------------------------------------------------|
B|---------------------------------------------------------------------------|
G|--14-14-14--14--12-12-12--12--14-14-14-16-16-16-16--17---------------------|
D|--xx-xx-xx--xx--xx-xx-xx--xx--xx-xx-xx-xx-xx-xx-xx--xx---------------------|
A|--12-12-12--12--10-10-10--10--12-12-12-14-14-14-14--15---------------------|
E|---------------------------------------------------------------------------|
From 4:54-6:08 its random quiet notes
End
e|---------------------------------------------------------------------------|
B|---------------------------------------------------------------------------|
G|---14----12--------14---------12-----------14------------------------------|
D|---------------------------------------------------------------------------|
A|---------------------------------------------------------------------------|
E|---------------------------------------------------------------------------|


| /  slide up
| \  slide down
| h  hammer-on
| p  pull-off
| ~  vibrato
| +  harmonic
| x  Mute note
===============================================================================
Related for May Nothing But Happiness Come Through Your Door tab