Song name
# A B C D E F G H I J K L M N O P Q R S T U V W X Y Z

Mogwai - Kings Meadow tab

-------------------------------------------------------------------------------
			     Kings Meadow - Mogwai
-------------------------------------------------------------------------------
Tabbed by: Wade Abbott
Email: wadeab@hotmail.com

Tuning: Regular

It's a very simple song for guitar, but quite nice. The majority of the main
piano part is at the bottom.
Guitar 1
Part 1 00:40-1:19
e|---------------------------------------------------------------------------|
B|---------12--10------------------------------------------------------------|
G|--9---------------12--10---------------------------------------------------|
D|-----10--------------------------------------------------------------------|
A|---------------------------------------------------------------------------|
E|---------------------------------------------------------------------------|
Part 2 1:20-1:32
e|---------------------------------------------------------------------------|
B|--10--12--10------10--12--10-----------------------------------------------|
G|---------------------------------------------------------------------------|
D|---------------------------------------------------------------------------|
A|---------------------------------------------------------------------------|
E|---------------------------------------------------------------------------|
Part 3 1:33-1:59
e|---------------------------------------------------------------------------|
B|--10--12--10--13--12--12--13-----------------------------------------------|
G|-------------------------------9-------------------------------------------|
D|---------------------------------------------------------------------------|
A|---------------------------------------------------------------------------|
E|---------------------------------------------------------------------------|
Part 1 2:00-2:52
Part 4 2:53-3:06
e|---------------------------------------------------------------------------|
B|---------12--10--13--12--12--13--------------------------------------------|
G|--9------------------------------9-----------------------------------------|
D|-----10--------------------------------------------------------------------|
A|---------------------------------------------------------------------------|
E|---------------------------------------------------------------------------|
Part 3 3:07-4:12
End

Keyboard/Piano for Guitar 00:13-00:39
e|---------------------------------------------------------------------------|
B|---------------------8----------------------------------8------------------|
G|--5----7-5-7---9-7-9-----5---7-5-7--5---7-5-7---7-9-7-9--------------------|
D|---------------------------------------------------------------------------|
A|---------------------------------------------------------------------------|
E|---------------------------------------------------------------------------|
00:40-1:09
e|---------------------------------------------------------------------------|
B|---------------------------------------------------------------------------|
G|--9--7--5--4----4----------9------------------------------7----------------|
D|-------------5------5---7--------10-10--9--7--5---2----10-----10--9--7-----|
A|---------------------------------------------------------------------------|
E|---------------------------------------------------------------------------|
1:10- 1:32 (the 8h9 is a very quick hammer-on)
e|---------------------------------------------------------------------------|
B|---------------------------------------------------------------------------|
G|------7--7--9--8h9-7------7-----------------------------------------7--9---|
D|--10-----------------10--------10--------9-----9--10---10--10----10-------7|
A|-----------------------------------10-------10-----------10----------------|
E|---------------------------------------------------------------------------|

The above Piano parts repeat through the song, especially the last one. It's 
tougher to transcribe the other parts due to the amount of stuff going on/ the 
piano part having two parts.

| /  slide up
| \  slide down
| h  hammer-on
| p  pull-off
| ~  vibrato
| +  harmonic
| x  Mute note
===============================================================================
Tap to rate this tab
# A B C D E F G H I J K L M N O P Q R S T U V W X Y Z