Song name
# A B C D E F G H I J K L M N O P Q R S T U V W X Y Z

Mogwai - The Precipice tab

-------------------------------------------------------------------------------
                             THE PRECIPICE - Mogwai
-------------------------------------------------------------------------------
Tabbed by: jahu
Email: bueee@o2.pl

Tuning: standard (EADGBe)

0:00

guitar 1 (left speaker)

e|-------------|-------------|
B|-------------|-------------|
G|-------------|-------------|
D|-------------|-------------|
A|-------0---0-|---------0---|
E|-5---5---5---|-5---5-------|

guitar 2 (right speaker)

e|-------------|
B|-------------|
G|---------4p2-|
D|-------------|
A|-0-----0-----|
E|-------------|

or may it be something like

e|---------------|
B|---------0h(1)-|
G|------------2--|
D|---------------|
A|-0-----0-------|
E|---------------|

0:13

guitar 1 (guitar 2 keeps playing the same thing)

e|-------------|-------------|-------------|
B|-------------|-------------|-------------|
G|-------------|-------------|-------------|
D|-------------|-------------|-------------|
A|-7-----7---7-|---------0---|-------0---0-|
E|-5---5---5---|-7---7-------|-8---8---7---|

e|-------------|-------------|-------------|-------------|
B|-------------|-------------|-------------|-------------|
G|-------------|-------------|-------------|-------------|
D|-------------|-------------|-------------|-------------|
A|-------0---0-|---------0---|-------0---0-|---------0---|
E|-5---5---5---|-5---5-------|-5---5---5---|-5---5-------|


0:57

guitar 1 generally plays the 0:00 thing again.

guitar 2

e|-------------|
B|-------------|
G|---------0h2-|
D|-------------|
A|-0-----0-----|
E|-------------|

guitar 3
play this 2x, second time without the last note

e|---------|-------|-------|--------|-------|
B|---------|-------|-------|-10-----|-------|
G|-14---12-|-9---7-|-9-----|--------|-------|
D|---------|-------|-------|--------|-------|
A|---------|-------|-------|--------|-------|
E|---------|-------|-------|--------|-------|

e|-------|-------|-------|-------|-------|--------|
B|-------|-------|-------|-------|-------|--------|
G|-9-----|-7---5-|-2-----|-------|-------|-----12-|
D|-------|-------|-------|-------|-------|--------|
A|-------|-------|-------|-------|-------|--------|
E|-------|-------|-------|-------|-------|--------|

1:38

guitar 1

e|-------------------------|-------------------------|
B|-------------------------|-------------------------|
G|-------------------------|-------------------------|
D|-6---6-6---6-6---6---6---|-4---4-4---4-4---4---4---|
A|-0---0-0---0-0---0---0---|-0---0-0---0-0---0---0---|
E|-------------------------|-------------------------|

e|-------------------------|-------------------------|
B|-------------------------|-------------------------|
G|-------------------------|-------------------------|
D|-7---7-7---7-7---7/9-9---|-5---5-5---5-5---5---5---|
A|-0---0-0---0-0---0---0---|-0---0-0---0-0---0---0---|
E|-------------------------|-------------------------|

e|--------------------------------|-------------------------|
B|--------------------------------|-------------------------|
G|--------------------------------|-------------------------|
D|-10---10-10---10-10---10---10---|-2---2-2---2-2---2---2---|
A|--0----0--0----0--0----0----0---|-0---0-0---0-0---0---0---|
E|--------------------------------|-------------------------|

e|--------------------------------|-------------------------|
B|--------------------------------|-------------------------|
G|--------------------------------|-------------------------|
D|-10---10-10---10-10---10---10---|-9---9-9---9-9---9---9---|
A|--0----0--0----0--0----0----0---|-0---0-0---0-0---0---0---|
E|--------------------------------|-------------------------|

2:03

e|-------------------------|-------------------------|
B|-------------------------|-------------------------|
G|-------------------------|-------------------------|
D|-6---6-6---6-6---6---6---|-4---4-4---4-4---4---4---|
A|-0---0-0---0-0---0---0---|-0---0-0---0-0---0---0---|
E|-------------------------|-------------------------|

e|-------------------------|-------------------------|
B|-------------------------|-------------------------|
G|-------------------------|-------------------------|
D|-7---7-7---7-7---7---7---|-5---5-5---5-5---5---5---|
A|-0---0-0---0-0---0---0---|-0---0-0---0-0---0---0---|
E|-------------------------|-------------------------|

e|--------------------------------|--------------------------------|
B|--------------------------------|--------------------------------|
G|--------------------------------|--------------------------------|
D|-10---10-10---10-10---12---12---|-14---14-14---14-14---14---14---|
A|--0----0--0----0--0----0----0---|--0----0--0----0--0----0----0---|
E|--------------------------------|--------------------------------|

e|--------------------------------|--------------------------|
B|--------------------------------|--------------------------|
G|--------------------------------|--------------------------|
D|-10---10-10---10-10---12---12---|-9---9-9---9-9---10---9---|
A|--0----0--0----0--0----0----0---|-0---0-0---0-0----0---0---|
E|--------------------------------|--------------------------|

2:28

e|-------------------------|-------------------------|
B|-------------------------|-------------------------|
G|-------------------------|-------------------------|
D|-6---6-6---6-6---6---6---|-4---4-4---4-4---4/6-6---|
A|-0---0-0---0-0---0---0---|-0---0-0---0-0---0---0---|
E|-------------------------|-------------------------|

e|-------------------------|-------------------------|
B|-------------------------|-------------------------|
G|-------------------------|-------------------------|
D|-7---7-7---7-7---7/9-9---|-5---5-5---5-5---5---5---|
A|-0---0-0---0-0---0---0---|-0---0-0---0-0---0---0---|
E|-------------------------|-------------------------|

e|--------------------------------|-------------------------|
B|--------------------------------|-------------------------|
G|--------------------------------|-------------------------|
D|-10---10-10---10-10---10---10---|-2---2-2---2-2---0h2-2---|
A|--0----0--0----0--0----0----0---|-0---0-0---0-0---0---0---|
E|--------------------------------|-------------------------|

e|--------------------------------|-------------------------|
B|--------------------------------|-------------------------|
G|--------------------------------|-------------------------|
D|-10---10-10---10-10---10---10---|-9---9-9---9-9---9---9---|
A|--0----0--0----0--0----0----0---|-0---0-0---0-0---0---0---|
E|--------------------------------|-------------------------|

2:53

e|-------------------------|-------------------------|
B|-------------------------|-------------------------|
G|-------------------------|-------------------------|
D|-6---6-6---6-6---6/7-7---|-4---4-4---4-4---4/6-6---|
A|-0---0-0---0-0---0---0---|-0---0-0---0-0---0---0---|
E|-------------------------|-------------------------|

e|-------------------------|-------------------------|
B|-------------------------|-------------------------|
G|-------------------------|-------------------------|
D|-7---7-7---7-7---7---7---|-5---5-5---5-5---5---5---|
A|-0---0-0---0-0---0---0---|-0---0-0---0-0---0---0---|
E|-------------------------|-------------------------|

e|--------------------------------|-------------------------|
B|--------------------------------|-------------------------|
G|--------------------------------|-------------------------|
D|-10---10-10---10-10---10---10---|-2---2-2---2-2---0h2-2---|
A|--0----0--0----0--0----0----0---|-0---0-0---0-0---0---0---|
E|--------------------------------|-------------------------|

e|---------------------------------|-------------------------|
B|---------------------------------|-------------------------|
G|---------------------------------|-------------------------|
D|-10---10-10---10-10/12-12---12---|-9---9-9---9-9---9---9---|
A|--0----0--0----0--0-----0----0---|-0---0-0---0-0---0---0---|
E|---------------------------------|-------------------------|


3:17
(more drums come in)

guitar 1

e|-------------------------|-------------------------|
B|-------------------------|-------------------------|
G|-------------------------|-------------------------|
D|-6---6-6---6-6---6---6---|-4---4-4---4-4---4---4---|
A|-0---0-0---0-0---0---0---|-0---0-0---0-0---0---0---|
E|-------------------------|-------------------------|

e|-------------------------|-------------------------|
B|-------------------------|-------------------------|
G|-------------------------|-------------------------|
D|-7---7-7---7-7---7/9-9---|-5---5-5---5-5---5---5---|
A|-0---0-0---0-0---0---0---|-0---0-0---0-0---0---0---|
E|-------------------------|-------------------------|

e|--------------------------------|---------------------------------|
B|--------------------------------|---------------------------------|
G|--------------------------------|---------------------------------|
D|-10---10-10---10-10---12---12---|-14---14-14---14-14---14---14\12-|
A|--0----0--0----0--0----0----0---|--0----0--0----0--0----0----0----|
E|--------------------------------|---------------------------------|

e|--------------------------------|---------------------------|
B|--------------------------------|---------------------------|
G|--------------------------------|---------------------------|
D|-10---10-10---10-10---12---12---|-9---9-9---9-9/10-10---9---|
A|--0----0--0----0--0----0----0---|-0---0-0---0-0-----0---0---|
E|--------------------------------|---------------------------|

another guitar comes in

e|--------------12-|-----------7-|
B|---------9h10----|-------5-5---|
G|-----------------|-------------|
D|-----------------|-------------|
A|-----------------|-------------|
E|-----------------|-------------|

e|-------------12-|------------10-|
B|-------/8/10----|---------------|
G|----------------|-------9h10----|
D|----------------|---------------|
A|----------------|---------------|
E|----------------|---------------|

e|-----------0-|-----------5-|
B|-------------|-------------|
G|-------4h5---|-------4-5---|
D|-------------|-------------|
A|-------------|-------------|
E|-------------|-------------|

e|-----------0-|-------------|
B|---------0---|---------0---|
G|-------4-----|-----5-------|
D|-------------|-------------|
A|-------------|-------------|
E|-------------|-------------|

3:41

guitar 1

e|-------------------------|-------------------------|
B|-------------------------|-------------------------|
G|-------------------------|-------------------------|
D|-6---6-6---6-6---6---6---|-4---4-4---4-4---4/6-6---|
A|-0---0-0---0-0---0---0---|-0---0-0---0-0---0---0---|
E|-------------------------|-------------------------|

e|-------------------------|-------------------------|
B|-------------------------|-------------------------|
G|-------------------------|-------------------------|
D|-7---7-7---7-7---7/9-9---|-5---5-5---5-5---5---5---|
A|-0---0-0---0-0---0---0---|-0---0-0---0-0---0---0---|
E|-------------------------|-------------------------|

e|--------------------------------|-------------------------|
B|--------------------------------|-------------------------|
G|--------------------------------|-------------------------|
D|-10---10-10---10-10---10---10---|-2---2-2---2-2---2---2---|
A|--0----0--0----0--0----0----0---|-0---0-0---0-0---0---0---|
E|--------------------------------|-------------------------|

e|--------------------------------|-------------------------|
B|--------------------------------|-------------------------|
G|--------------------------------|-------------------------|
D|-10---10-10---10-10---10---10---|-9---9-9---9-9---9---9---|
A|--0----0--0----0--0----0----0---|-0---0-0---0-0---0---0---|
E|--------------------------------|-------------------------|

another guitar plays

e|--------12-------------12------|-------7-----------7-----|
B|-9---10------10---9-10----10\--|-----5-----5-----5---5/--|
G|-------------------------------|-7-------------7---------|
D|-------------------------------|-------------------------|
A|-------------------------------|-------------------------|
E|-------------------------------|-------------------------|

e|-15------12--------------12------|-12----------------12-----------|
B|------10------10------10----10\--|--------------------------------|
G|-------------------12------------|------12-10---12------12---12\--|
D|---------------------------------|--------------------------------|
A|---------------------------------|--------------------------------|
E|---------------------------------|--------------------------------|

e|--------10-------------10------|---------12--------------12------|
B|-------------------------------|---------------------------------|
G|-9---10------10---9-10----10\--|-10---12------12---10-12----12\--|
D|-------------------------------|---------------------------------|
A|-------------------------------|---------------------------------|
E|-------------------------------|---------------------------------|

e|---------13--------------13------|---------15-----------15---------|
B|---------------------------------|---------------------------------|
G|-12---14------14---12-14----14/--|-16---16------16---14----16-14---|
D|---------------------------------|---------------------------------|
A|---------------------------------|---------------------------------|
E|---------------------------------|---------------------------------|

4:05
interlude

guitar 1

e|-------------------------|-------------------------|
B|-------------------------|-------------------------|
G|-------------------------|-------------------------|
D|-2---2-2---2---2/3---3---|-2---2-2---2--/5-5---7\--|
A|-0---0-0---0---0-0---0---|-0---0-0---0---0-0---0---|
E|-------------------------|-------------------------|

e|-------------------------|-------------------------|
B|-------------------------|-------------------------|
G|-------------------------|-------------------------|
D|-2---2-2---2---3-3---3---|-2---2-2---2--/5-5---7\--|
A|-0---0-0---0---0-0---0---|-0---0-0---0---0-0---0---|
E|-------------------------|-------------------------|

4:18
play this section 2x

e|-------------------------|-------------------------|
B|-------------------------|-------------------------|
G|-------------------------|-------------------------|
D|-3---2-3---5---2-2---2---|-5---7-7---7---5-5---5---|
A|-0---0-0---0---0-0---0---|-0---0-0---0---0-0---0---|
E|-------------------------|-------------------------|

e|-------------------------|-------------------------|
B|-------------------------|-------------------------|
G|-------------------------|-------------------------|
D|-2---2-2---2---2-3---0---|-2---2-2---2---2-2---2---|
A|-0---0-0---0---0-0---0---|-0---0-0---0---0-0---0---|
E|-------------------------|-------------------------|

4:42

e|-------------------------|-------------------------|
B|-------------------------|-------------------------|
G|-------------------------|-------------------------|
D|-3---2-3---5---2-2---2---|-5---7-7---7---9-9-9-9-9-|
A|-0---0-0---0---0-0---0---|-0---0-0---0---0-0-0-0-0-|
E|-------------------------|-------------------------|

e|----------------------------------|---------------------------------|
B|----------------------------------|---------------------------------|
G|----------------------------------|---------------------------------|
D|-10-10-10-10---10---12-12-12-12---|-14-14-14-14---14---14-14---14---|
A|--0--0--0--0----0----0--0--0--0---|--0--0--0--0----0----0--0----0---|
E|----------------------------------|---------------------------------|

e|-------------------------|-------------------------|
B|-------------------------|-------------------------|
G|-------------------------|-------------------------|
D|-3---2-3---5---2-2---2---|-5---7-7---7---5-5---5---|
A|-0---0-0---0---0-0---0---|-0---0-0---0---0-0---0---|
E|-------------------------|-------------------------|

e|-------------------------|-------------------------|
B|-------------------------|-------------------------|
G|-------------------------|-------------------------|
D|-2---2-2---2---2-2---2---|-2---2-2---2---2-2---2---|
A|-0---0-0---0---0-0---0---|-0---0-0---0---0-0---0---|
E|-------------------------|-------------------------|

5:06

e|-------------------------|-------------------------|
B|-------------------------|-------------------------|
G|-------------------------|-------------------------|
D|-3---2-3---5---2-2---2---|-5---7-7---7---5-5---5---|
A|-0---0-0---0---0-0---0---|-0---0-0---0---0-0---0---|
E|-------------------------|-------------------------|

e|-------------------------|-------------------------|
B|-------------------------|-------------------------|
G|-------------------------|-------------------------|
D|-2---2-2---2---2-2---2---|-2---2-2---2---2-2---2---|
A|-0---0-0---0---0-0---0---|-0---0-0---0---0-0---0---|
E|-------------------------|-------------------------|

e|-------------------------|-------------------------|
B|-------------------------|-------------------------|
G|-------------------------|-------------------------|
D|-3---2-3---5---2-2---2---|-5---7-7---7---9-9-9-9---|
A|-0---0-0---0---0-0---0---|-0---0-0---0---0-0-0-0---|
E|-------------------------|-------------------------|

e|---------------------------------|---------------------------------|
B|---------------------------------|---------------------------------|
G|---------------------------------|---------------------------------|
D|-10-10-10-10---10---12-12---12---|-14-14-14-14---14---14-14b--14---|
A|--0--0--0--0----0----0--0----0---|--0--0--0--0----0----0--0----0---|
E|---------------------------------|---------------------------------|

5:30
play this 4x

e|-------------------------|
B|-------------------------|
G|-------------------------|
D|-2---2-2---2---2-2---2---|
A|-0---0-0---0---0-0---0---|
E|-0---0-0---0---0-0---0---|

5:36
short tremolo picking part (guitar 2?)

e|--------------|---------------|
B|-17-----------|---20-----18---|
G|--------------|---------------|
D|--------------|---------------|
A|--------------|---------------|
E|--------------|---------------|

5:41

guitar 1 (repeats this section till the end of the song)

e|-------------------------|-------------------------|
B|-------------------------|-------------------------|
G|-------------------------|-------------------------|
D|-5---5-5---5---5-5---5---|-4---4-4---4---4-4---4---|
A|-3---3-3---3---3-3---3---|-2---2-2---2---2-2---2---|
E|-3---3-3---3---3-3---3---|-2---2-2---2---2-2---2---|

e|-------------------------|-------------------------|
B|-------------------------|-------------------------|
G|-------------------------|-------------------------|
D|-5---5-5---5---5-5---5---|-2---2-2---2---2-2---2---|
A|-5---5-5---5---5-5---5---|-0---0-0---0---0-0---0---|
E|-3---3-3---3---3-3---3---|-0---0-0---0---0-0---0---|


another guitar comes in again (guitar 3?)

e|-----------7---|
B|---------8---8-|
G|-----7/9-------|
D|---------------|
A|---------------|
E|---------------|

e|-7-----------|-------------|-------------|---------7---|
B|---8---8-----|-----8-------|-------------|-------8---8-|
G|-----9-----9-|---9-----9---|-------9-----|-----9-------|
D|-------------|-------------|-9-----------|-------------|
A|-------------|-------------|-------------|-------------|
E|-------------|-------------|-------------|-------------|

e|-7-----------|-------------|-------------|---------7---|
B|---8---8-----|-----8-------|-------------|-------8---8-|
G|-----9-----9-|---9-----9---|-------9-----|--\7/9-------|
D|-------------|-------------|-7-----------|-------------|
A|-------------|-------------|-------------|-------------|
E|-------------|-------------|-------------|-------------|

e|-7-----------|-------------|-------------|---------7---|
B|---8---8-----|-----8-------|-------------|-------8---8-|
G|-----9-----9-|---9-----9---|-------9-----|-----9-------|
D|-------------|-------------|-9-----------|-------------|
A|-------------|-------------|-------------|-------------|
E|-------------|-------------|-------------|-------------|

e|-7-----------|-------------|-------------|-------------|
B|---8---8-----|-----8-------|-------------|-------------|
G|-----9-----9-|---9-----9---|-------9-----|-----9---9---|
D|-------------|-------------|-7-----------|-------------|
A|-------------|-------------|-------------|-------------|
E|-------------|-------------|-------------|-------------|

6:06

e|-----------------|-------------------|-----------------|-------------------|
B|-----------------|-------------------|-----------------|-------------------|
G|-14-14-12-12-9-9-|-14-14-14-14-14-14-|-12-12-11-11-9-9-|-12-12-12-12-12-12-|
D|-----------------|-------------------|-----------------|-------------------|
A|-----------------|-------------------|-----------------|-------------------|
E|-----------------|-------------------|-----------------|-------------------|

e|-------------|-------------------|-------------|----------------|
B|-------------|-------------------|---0-0-0-0-0-|----------------|
G|-9-9-7-7-5-5-|-14-14-14-14-14-14-|-2-----------|---12-12---12---|
D|-------------|-------------------|-------------|----------------|
A|-------------|-------------------|-------------|----------------|
E|-------------|-------------------|-------------|----------------|

repeat section above, but insted last two bars hit

e|-------------|
B|-0-----------|
G|-2-----------|
D|-------------|
A|-------------|
E|-------------|

| /   slide up
| \   slide down
| h   hammer-on
| p   pull-off
| b   bend
| ( )  ghost note
===============================================================================
Tap to rate this tab
# A B C D E F G H I J K L M N O P Q R S T U V W X Y Z