Song name
# A B C D E F G H I J K L M N O P Q R S T U V W X Y Z

Mogwai - You Dont Know Jesus tab

You Dont Know Jesus
--------------------

Warning:This was one of my first tabs so its all upside down!

Intro:
(guitar 1)
e-3--|     |------6--3--3--3------6--3--3--3----------------6---6------6--3--3---3--|
a--5-|     |---0-5--5--5-5--5--0-5--5--5-5--5---0---0---0--5--5--5--0-5--5--5--5--5-|
d----|     |--0-8--5--5---5---0-8--5--5---5----0---0---0--8----8---0-8--5--5----5---|
g----|     |-7---------------7---------------10---8---7-----------7-----------------|
b----|intro|------------------------------------------------------------------------|
e----|only |------------------------------------------------------------------------|


Main Riff (0.29). This riff repeats alot
(Guitar 1)
e|----6--3-------------6--3--------------------6----------6--3------------|
a|-5----------------5-----------------8--6--5----------5------------------|
d|------------------------------------------------------------------------|
g|------------------------------------------------------------------------|
b|------------------------------------------------------------------------|
e|------------------------------------------------------------------------|

(Guitar 2)                           ***
e|---------3--3--3----------3--3--3----------------6-----------3--3--3----|
a|--------5--5-5--5--------5--5-5--5--------------5-----------5--5-5--5---|
d|----8--5--5---5------8--5--5---5-------------8----8-----8--5--5---5-----|
g|-7----------------7----------------10--8--7----------7------------------|
b|------------------------------------------------------------------------|
e|------------------------------------------------------------------------|

***(guitar 3) ~0.42 you have a 3rd guitar playing this (Figure B)
e-------------------|
a-------------------|
d-------------------|
g-10/8-8-8/7-7-7/8-8|
b-------------------|
e-------------------|
if you have a reverb pedal set it low when you play this then
turn the feedback up quickly on the final note to get the same effect you hear.
this figure repeats at the *** when the intro and main riff are played


Guitar 1 ~(1.20) Plays the Intro again


Guitar 2 ~(1.20) Plays these chords repeatedly. This is figure C
e|-------------------|
a|-------------------|
d|--5--8--10---5-----|
g|--7--10--12--7-----|
b|--8--11--11--8-----|
e|-------------------|

Guitar 3 ~(1.20) plays Figure B repeatedly

Guitar 2 ~(1.44) plays repeatly until ~ (2.10)
e|---------------|
a|--10-10--10-x--|
d|--12-12--12-x--|
g|--12-12--12-x--|
b|---------------|
e|---------------|
Do the first 2 chords as an down stroke then the second as an up/down stroke. this is 
D

Guitar 2 ~(2.10)
e|--3--3---3-x--|
a|--5--5---5-x--|
d|--5--5---5-x--|
g|--3--3---3-x--|
b|--------------|
e|--------------|
Do the first 2 chords as an down stroke then the second as an up/down stroke. this is 
E


Guitar 2~(2.15) goes back up to Figure D and goes down to Figure E at ~(2.25)
Guitar 3~(2.39) repeats figure C  until ~(2.51) when it plays
e|--3-3--3-x--|--3-3--3-x--|--3-3--3-x--|--3-3--3-x--|------------|------------|------------|
a|--5-5--5-x--|--5-5--5-x--|--5-5--5-x--|--5-5--5-x--|--5-5--5-x--|--5-5--5-x--|--5-5--5-x--|
d|--5-5--5-x--|--5-5--5-x--|--5-5--5-x--|--5-5--5-x--|--7-7--7-x--|--7-7--7-x--|--7-7--7-x--|
g|--3-3--3-x--|--3-3--3-x--|--3-3--3-x--|--7-7--7-x--|--7-7--7-x--|--7-7--7-x--|--7-7--7-x--|
b|------------|------------|------------|------------|--6-6--6-x--|--6-6--6-x--|--6-6--6-x--|
e|------------|------------|------------|------------|------------|------------|------------|
Guitar 2 then goes back into Figure E

Guitar 1 plays extremely fast at ~(3.32) and ~(3.43)
e|----------------|
a|-10-10-10-10-10-|
d|-12-12-12-12-12-|
g|-12-12-12-12-12-|
b|----------------|
e|----------------|


Then at ~(3.51) Guitar 1 goes back into the intro riff and guitar 2 plays nothing until

Guitar 2 ~(4.09).
e-------------------|
a-------------------|
d-------------------|
g-12~~~~------------|
b-------------------|
e-------------------|

then at ~(5.10)
Guitar 1 and 2 go back into the main riff with some minor variations untill

Guitar 2~(6.04) plays the Gm chord (the one in Figure E)repeatedly and guitar1 plays the 
note
which is simply

e|---3--3--3--3--|
a|---------------|
d|---------------|
g|---------------|
b|---------------|
e|---------------|


until ~(6.45)
when Guitar1 plays

e|---------------------|
a|---0--0--0---0--0--0-|
d|--0--0--0---0--0--0--|
g|-7--7--9--10--5--7---|
b|---------------------|
e|---------------------|

Notes:

It should be mentioned that guitar 3 is basically playing figure B most of the time 
it also
does almost all those weird sounds during the song when its not playing figure B. For 
the sound
at ~(2.51) sounds like a way pedal being pressed up and down with the volume up and
playing, this
is most likely Guitar 3 or possibly a 4th guitar being dubbed in. There is alot of stuff
this song past the
~(1.20) mark thats hard to make out but this is what i could make out. The best advice i
give you to make
this sound good is to use no distortion at all, just a loud clean sound for all the
(except 3 which has
alot of effects running through it, none of which are distortion)
Tap to rate this tab
 
# A B C D E F G H I J K L M N O P Q R S T U V W X Y Z