Song name
# A B C D E F G H I J K L M N O P Q R S T U V W X Y Z

Mogwai - A Place For Parks tab

Help us improve GuitareTab! Take a short survey!
Mogwai - A Place For Parks - Ten Rapid.

This tab is for the main guitar part only, and is in standard tuning.

If there is any correctiions to be done let me know. Feel free to rate and comment about 
tab. Thank You, CoMeOnDiEyOuNg.

00.00 - 00.15 Bass Riff Intro then come in with...


e|----------------------------------------------------------|
B|----------------------------------------------------------|
G|11----9----------------------11-----9---------------------|
D|------------11-----12---12--------------11-----12---7-----|
A|-9----7----------------------9------7---------------------|
E|-------------9-----10---10---------------9-----10---5-----|

e|----------------------------------------------------------|
B|----------------------------------------------------------|
G|11----9-----------------14---11-----9---------------------|
D|------------11----12----------------------11----12---7----|
A|-9----7-----------------12----9-----7---------------------|
E|-------------9----10-----------------------9----10---5----|

e|-------------------------------------------------------------|
B|-------------------------------------------------------------|
G|--18---14---18---14---18---14---18---14----------------------|
D|-------------------------------------------------------------|
A|--16---12---16---12---16---12---16---12----------------------|
E|-------------------------------------------------------------|

e|------------------------------------------------------------|
B|------------------------------------------------------------|
G|-11----9------------------11-----9--------------------------|
D|-----------11---12---12---------------11---12----7----------|
A|--9----7-------------------9-----7--------------------------|
E|------------9---10---10----------------9---10----5----------|

e|--------------------------------------------------------------|
B|--------------------------------------------------------------|
G|-11----9---------------14---11----9---------------------------|
D|-----------11----12-------------------11----12----7-----------|
A|--9----7---------------12----9----7---------------------------|
E|------------9----10--------------------9----10----5-----------|

e|-------------------------------------------------------------|
B|-------------------------------------------------------------|
G|--18---14---18---14---18---14---18---14----------------------|
D|-------------------------------------------------------------|
A|--16---12---16---12---16---12---16---12----------------------|
E|-------------------------------------------------------------|

e|------------------------------------------------------------|
B|------------------------------------------------------------|
G|-11----9------------------11-----9--------------------------|
D|-----------11---12---12---------------11---12----7----------|
A|--9----7-------------------9-----7--------------------------|
E|------------9---10---10----------------9---10----5----------|

e|--------------------------------------------------------------|
B|--------------------------------------------------------------|
G|-11----9---------------14---11----9---------------------------|
D|-----------11----12-------------------11----12----7-----------|
A|--9----7---------------12----9----7---------------------------|
E|------------9----10--------------------9----10----5-----------|

e|--------------------------------------------------------------|
B|--------------------------------------------------------------|
G|--18---14---18---14---18---14---18---14-----------------------|
D|--------------------------------------------------------------|
A|--16---12---16---12---16---12---16---12-----------------------|
E|--------------------------------------------------------------|

e|------------------------------------------------------------------|
B|------------------------------------------------------------------|
G|--14-----14-----14-------------------------------14---------------|
D|----------------------11----12-----7-------------14---------------|
A|--12-----12-----12-------------------------------12---------------|
E|-----------------------9----10-----5------------------------------|

Thank You for reading my tab, let me know what you think of it.

Thanks, CoMeOnDiEyOuNg.  Dale
Related for A Place For Parks tab