Song name
# A B C D E F G H I J K L M N O P Q R S T U V W X Y Z

Mogwai - R U Still In 2 It tab

Just a transcript of a previous tab in few other tunings, and one my idea how it's 
to play in in standard tuning.

The old tab:

Standard tuning

    E     S S E  S E  S S S S S E     E     S S E  S E  S S S S S S S
E||---------------------------------|----------------------------------|
B||------------3-------------3------|----------------------------------|
G||--------0--------0----0-------0--|------------4-------------4-------|
D||---------------------------------|--------2--------2----2-------2---|
A||--3-------3----3----3---3---3----|--0-------0----0----0---0---0---0-|
E||---------------------------------|----------------------------------|


  Cadd9                              Asus2
  >         >    >    >   >   >      >         >             >   >
  E     S S E  S E  S S S S S S S    E     S S E  S E  S S S S S S S
----------------------------------|----------------------------------||
------------3-------------3-------|----------------------------------||
--------0--------0----0-------0---|----------------------------------||
----------------------------------|--------2---2----2----2---3---2---||
--3-------3----3----3---3---3---3-|--0-------0----0----0---0---0---0-||
----------------------------------|----------------------------------||


My idea
    E     S S E  S E  S S S S S E     E     S S E  S E  S S S S S S S
E||---------------------------------|----------------------------------|
B||---------------------------------|----------------------------------|
G||------------7-------------7------|------------4-------------4-------|
D||--------5--------5----5-------5--|--------2--------2----2-------2---|
A||--3-------3----3----3---3---3----|--0-------0----0----0---0---0---0-|
E||---------------------------------|----------------------------------|


  Cadd9                              Asus2
  >         >    >    >   >   >      >         >             >   >
  E     S S E  S E  S S S S S S S    E     S S E  S E  S S S S S S S
----------------------------------|----------------------------------||
----------------------------------|----------------------------------||
------------7-------------7-------|----------------------------------||
--------5--------5----5-------5---|--------2---2----2----2---3---2---||
--3-------3----3----3---3---3---3-|--0-------0----0----0---0---0---0-||
----------------------------------|----------------------------------||


Drop D


E||---------------------------------|----------------------------------|
B||---------------------------------|----------------------------------|
G||------------7-------------7------|------------4-------------4-------|
D||--------5--------5----5-------5--|--------2--------2----2-------2---|
A||--3-------3----3----3---3---3----|--0-------0----0----0---0---0---0-|
D||---------------------------------|----------------------------------|


  Cadd9                              Asus2
  >         >    >    >   >   >      >         >             >   >
  E     S S E  S E  S S S S S S S    E     S S E  S E  S S S S S S S
----------------------------------|----------------------------------||
----------------------------------|----------------------------------||
------------7-------------7-------|----------------------------------||
--------5--------5----5-------5---|--------2---2----2----2---3---2---||
--3-------3----3----3---3---3---3-|--0-------0----0----0---0---0---0-||
----------------------------------|----------------------------------||

Or

E||---------------------------------|----------------------------------|
B||---------------------------------|----------------------------------|
G||---------------------------------|----------------------------------|
D||------------12-------------12----|------------9-------------9-------|
A||-------10-------10---10------10--|--------7--------7----7-------7---|
E||--10-----10---10---10--10--10--10|--7------------7----7---7---7---7-|


  Cadd9                              Asus2
  >         >    >    >   >   >      >         >             >   >
  E     S S E  S E  S S S S S S S    E     S S E  S E  S S S S S S S
----------------------------------|----------------------------------||
----------------------------------|----------------------------------||
----------------------------------|----------------------------------||
-----------12-------------12------|----------------------------------||
-------10-------10---10------10---|--------7--------7----7---8---7---||
--10-----10---10---10--10--10--10-|--7-------7----7----7---7---7---7-||
Tap to rate this tab
# A B C D E F G H I J K L M N O P Q R S T U V W X Y Z