Song name
# A B C D E F G H I J K L M N O P Q R S T U V W X Y Z

Mogwai - You Dont Know Jesus tab

Song : You don't know jesus
Album : Rock Action
Performer : Mogwai
Tabbed by : davy.flament@edpnet.be

There's a very good live recording somewhere on youtube, watch it :-) If i remember 
they play with 3 guitars. I saw them live a couple of times and some of their songs are 
with 3 guitars.

The tuning & timing for this song are a bit strange but just listen to the song and 
get the hang of it. I don't know if all the guitars have the same tuning but it's doesn't 
matter. You can play the second guitar with a normal standard tuning if you want.

I've tabbed out as many parts is i can. most is for the 2 guitars, the third plays crazy 
It's sometimes hard to find out which guitar is doing what so just listen to the song 
get it right.


TUNING:

Just tune your second string down 1 step so it'll become a 'G' to get that G-sound from 
recording :-)

E G D G B e

RIFF 1 (guitar 1 with some reverb):

 e -||-----|---------------------------------|------------------------------------|
 B -||-----|---------------------------------|------------------------------------|
 G -||-----|-7-----3-----0-----0-------0-----|---7-----3-----0-----0-------0------|
 D -||---0-|---0-----0-----0-----0---0---0---|-----0-----0-----0-----0---0---0----|
 G -||-0---|-----0-----0-----0-----0-------0-|-------0-----0-----0-----0-------0--|
 E -||-----|---------------------------------|------------------------------------|

 e -||----------------------------------|----------------------------------|
 B -||----------------------------------|----------------------------------|
 G -||-10-----8-----7-----3-------3-----|-7-----3-----0-----0-------0------|
 D -||----0-----0-----0-----0---0---0---|---0-----0-----0-----0---0---0----|
 G -||------0-----0-----0-----0-------0-|-----0-----0-----0-----0-------0--|
 E -||----------------------------------|----------------------------------|


RIFF 2 (guitar 2):

 e -||---6-----5-----6-----1-----1------|
 B -||---8-----8-----8-----3-----3------|
 G -||---7-----7-----7-----0-----0------|
 D -||---0-----0-----0-----0-----0------|
 G -||--(0)---(0)---(0)---(0)---(0)-----|
 E -||----------------------------------|


RIFF 3 (guitar 3, around 1:44):

 e -||---6s5-5-5-5s6----|
 B -||---8-8-8-8-8-8----|
 G -||---0-0-0-0-0-0----|
 D -||---0-0-0-0-0-0----|
 G -||------------------|
 E -||------------------|


RIFF 4 (around 2:08):
                    x2
 e -||----6------3-----|
 B -||----6------3-----|
 G -||----3------0-----|
 D -||----3------0-----|
 G -||---(3)----(0)----|
 E -||-----------------|

 e -||----5---6---5----|
 B -||----3---3---3----|
 G -||----0---0---0----|
 D -||----0---0---0----|
 G -||-----------------|
 E -||-----------------|


RIFF 5 (around 2:50):

 e -||----8------6------3-----|
 B -||----8------6------3-----|
 G -||----5------3------0-----|
 D -||----5------3------0-----|
 G -||---(5)----(3)----(0)----|
 E -||------------------------|

 e -||----5---6-----|
 B -||----3---3-----|
 G -||----0---0-----|
 D -||----0---0-----|
 G -||--------------|
 E -||--------------|

Then its lots of RIFF 1 and the second part of RIFF 5 or 6


RIFF 6 (around 3:57):

 e -||----6------5------3-----|
 B -||----8------8------3-----|
 G -||----7------7------0-----|
 D -||----0------0------0-----|
 G -||------------------------|
 E -||------------------------|


RIFF 7 (around 5:26 + rythm change):
                  x4             x4             x4
 e -||---18---------|---17---------|---15----------|
 B -||------15------|------15------|------15-------|
 G -||---------15---|---------15---|---------15----|
 D -||--------------|--------------|---------------|
 G -||--------------|--------------|---------------|
 E -||--------------|--------------|---------------|

RIFF 8 (around 6:04 this enters the song over Riff 7)

 e -||---3----------|---1----------|---3-----------|
 B -||---3----------|---3----------|---3-----------|
 G -||---0----------|---0----------|---0-----------|
 D -||---0----------|---0----------|---0-----------|
 G -||--------------|--------------|---------------|
 E -||--------------|--------------|---------------|

RIFF 9 (around 6:49)
               x4          x4          x4
 e -||---6-------|---5-------|---3--------|
 B -||-----3-----|-----3-----|-----3------|
 G -||-------0---|-------0---|-------0----|
 D -||-----------|-----------|------------|
 G -||-----------|-----------|------------|
 E -||-----------|-----------|------------|
Tap to rate this tab
 
# A B C D E F G H I J K L M N O P Q R S T U V W X Y Z