Song name
# A B C D E F G H I J K L M N O P Q R S T U V W X Y Z

Mogwai - Helps Both Ways tab

-----------------------------------------------------------------------------
			 Helps Both Ways - Mogwai
-----------------------------------------------------------------------------
Tabbed by: david
Email: thischarmingman13@gmail.com

Tuning: STD


e|---------------------------------------------------------------------------|
B|-------------------------------------7/-8-\-7------------------------------|
G|-----------------------------------------------9--7------------------------|
D|-----4-----4h5p4-----4-----2--4------4/-5-\-4-------------4----4h5p4-----4-|
A|-3h5-----5-----------5-----3/-5----------------7--5---3h5----5-----------5-|
E|-----------------3----------------------------------------------------3----|
drums enter 33 seconds, play this once
e|---------------------------------------------------------------------------|
B|---------------------------------------------------------------------------|
G|---------------------------------------------------------------------------|
D|------------4h5p4--------------4----4h5p4----4-----------------------------|
A|-7-/-9------5------7--5----3h5----5----------5-----------------------------|
E|-------------------------------------------3-------------------------------|
then the slide part changes, play till end
e|---------------------------------------------------------------------------|
B|---------------------------------------------------------------------------|
G|---------------------------------------------------------------------------|
D|------------4h5p4--------------4----4h5p4----4-----------------------------|
A|-5-/-7------5------7--5----3h5----5----------5-----------------------------|
E|-------------------------------------------3-------------------------------|

************************************

| /   slide up
| \   slide down
| h   hammer-on
| p   pull-off
| ~   vibrato
| +   harmonic
| x   Mute note
| b   Bend
| pb  Pre-bend
| br  Bend release
| pbr Pre-bend release
| brb Bend release bend

************************************
Tap to rate this tab
 
# A B C D E F G H I J K L M N O P Q R S T U V W X Y Z