Song name
# A B C D E F G H I J K L M N O P Q R S T U V W X Y Z

Mogwai - Yes I Am A Long Way From Home tab

Hello! Mogwai are one of my favourite bands, and this is how the intro to

 *******************************
 *Yes!I am a long way from home*
 *******************************


 Read this article if you are interested,

 http://en.wikipedia.org/wiki/Yes!_I_Am_a_Long_Way_from_Home


 It is actually very interesting.

Anyway, this is the intro of the song, (guitar) a bass plays the SAME line, over which 
guitar plays this,

e-----------------------------------------------------------------|
B-----------------------------------------------------------------|
G-----------------------------------------------------------------|
D-----------------------------------------------------------------|
A-------4-5-4---4-5--4----4-5-4--7--4--5-4------------------------|
E-----5-------5----5----5-----------------------------------------|


 Then it repeats over and over

A second guitar plays,


e---------0-----0-----0--------------|
B------------------------------------|
G------7-----7-----7-----------------|
D------------------------------------|
A------------------------------------|
E------------------------------------|

If you play that, you will see where it goes, (if you know the song...)


Hope it helps!


This tab was worked out by myself, with no help from any other tab submitters. Thanks you.
Tap to rate this tab
 
# A B C D E F G H I J K L M N O P Q R S T U V W X Y Z