Song name
# A B C D E F G H I J K L M N O P Q R S T U V W X Y Z

Mogwai - Rano Pano tab

This is just main riff.

Tuning (from low to high): E A B G B E
  - just tune from D to B .

E|-------------------------------------------------------------|
B|-------------------------------------------------------------|
G|-------------------------------------------------------------|
B|-2----4--5-4-2---4---5-7-5---7-5-4-0--2/4---2---5--4--0---2--|
A|-0----0--0-0-0---0---0-0-0---0-0-0----0-----0---0--0--0---0--|
E|-------------------------------------------------------------|


E|--------------------------------------------------------------|
B|--------------------------------------------------------------|
G|--------------------------------------------------------------|
B|-4-5-7--7/9--9---0--5/7-7/9--9---10--12-10-9-9--7--5--5-7-5-4-|
A|-0-0-0--0-0--0---0--0---0----0---0---0--0--0-0--0--0--0-0-0-0-|
E|--------------------------------------------------------------|


Tab devoted to Jari H. (on his request)
Tap to rate this tab
 
# A B C D E F G H I J K L M N O P Q R S T U V W X Y Z