Song name
# A B C D E F G H I J K L M N O P Q R S T U V W X Y Z

Mogwai - San Pedro tab

San Pedro - Mogwai

standard tuning

Part 1 (x2)
 
 Guitar 1:

|---------------------------------------------------------------|
|----------------6-8-6-------------------------------------2h3p2|
|--------3---3-3-------7-5---5-5-5-7-5-0-3---3------------------|
|-5--5-5-----------------------------------------5---5---5------|
|---------------------------------------------------------------|
|---------------------------------------------------------------|

 Guitar 2:

|---------------------------------------------------------------|
|---------------------------------------------------------------|
|-12------------10---------------------------12-----------------|
|-12------------10-------------10------------12-----------------|
|-10------------8--------------10------------10-----------------|
|------------------------------8--------------------------------|

Part 2

 Guita 1:

|-----------------------------------------------------------------------|
|---8-8-6-8-6-----6-6-6-6-6-6---------8-6-8-6-----6-6-----6-6-----------|
|-0-----------7---------------7-8-7-0---------7-------7-8-----7-8-7-0---|
|-----------------------------------------------------------------------|
|-----------------------------------------------------------------------|
|-----------------------------------------------------------------------|

 Guitar 2:

|------------------------------------------------------------------------------------|
|---8-8-8-8-8-8-8-8-13-13-13-13-11-11-10---8-8-8-8-8-8-8-8-13-13-13-13-13-11-10-11-10|
|------------------------------------------------------------------------------------|
|------------------------------------------------------------------------------------|
|------------------------------------------------------------------------------------|
|------------------------------------------------------------------------------------|

 Guitar 1:

|-----------------------------------------------------------------------|
|---8-8-6-8-6-----6-6-6-6-6-----------8-6-8-6-----6-6-----6-6-----------|
|-0-----------7-------------8-7-8-7-0---------7-------7-8-----7-8-7-0---|
|-----------------------------------------------------------------------|
|-----------------------------------------------------------------------|
|-----------------------------------------------------------------------|

 Guitar 2:

|------------------------------------------------------------------------------------|
|------------------------------------------------------------------------------------|
|---8-8-8-8-8-8-8-8-13-13-13-13-13-11-10-11-10-8-8-8-8-8-8-13-13-13-13-13-11-10-11-10|
|------------------------------------------------------------------------------------|
|------------------------------------------------------------------------------------|
|------------------------------------------------------------------------------------|

Now Play "Part 1" (repeating the chords of Guitar 2)

Now Play Part 3 (x2), it's like Part 2, but the second guitar is a little different:

|------------------10-10-10-11-11----------10---10---10---10-10-10-x-x-x|
|-8-8-8-8-8-8-8-8--10-10-10-11-11-12---8-8----8----8----8-10-10-10-6-6-6|
|---------------------------------12------------------------------------|
|-----------------------------------------------------------------------|
|-----------------------------------------------------------------------|
|-----------------------------------------------------------------------|

Part 4(x2)

 Guitar 1:

|-----------------------------------------------------------------------|
|-6---6-6-6-------6---6-6-6-------8---8-8-8-6-------8-8-8-8-6-----------|
|-----------7-8-8-----------7-8-8-------------7---------------7---------|
|-----------------------------------------------------------------------|
|-----------------------------------------------------------------------|
|-----------------------------------------------------------------------|

 Guitar 2:

|-----------------------------------------------------------------------|
|-----------------------------------------------------------------------|
|-3-3-3-3-3-3-3-3-5-5-5-5-5-5-5-5---12-12-12-12-9-7-----5-5-5-5-3-0-----|
|-3-3-3-3-3-3-3-3-5-5-5-5-5-5-5-5---0--0--0--0--0-0-----5-5-5-5-3-0-----|
|-----------------------------------------------------------------------|
|-----------------------------------------------------------------------|

Now Play "Part 1" (repeating the chords of Guitar 2)

Now Play "Part 3"

Part 5

 Guitar 1:

|-----------------------------------------------------------------------|
|-6---6-6-6-------6---6-6-6-------8---8-8-8-6-------8-8-8-8-6-----------|
|-----------7-8-8-----------7-8-8-------------7---------------7---------|
|-----------------------------------------------------------------------|
|-----------------------------------------------------------------------|
|-----------------------------------------------------------------------|

 Guitar 2:

|--------------------------------------------------------------------------------|
|--------------------------------------------------------------------------------|
|-3-3-5-5-7-7-109---9-9-9-9-9-9-9-12-12-12-12-12-12-12-12-12-12-12-12-12-12-12-12|
|-x-x-x-x-x-x-x-x---x-x-x-x-x-x-x-x--x--x--x--x--x--x--x--x--x--x--x--x--x--x--x-|
|-1-1-3-3-5-5-8-7---7-7-7-7-7-7-7-10-10-10-10-10-10-10-10-10-10-10-10-10-10-10-10|
|--------------------------------------------------------------------------------|

 Guitar 1:

|-----------------------------------------------------------------------|
|-6---6-6-6-------6---6-6-6-------8---8-8-8-6-------8-8-8-8-6-----------|
|-----------7-8-8-----------7-8-8-------------7---------------7---------|
|-----------------------------------------------------------------------|
|-----------------------------------------------------------------------|
|-----------------------------------------------------------------------|

 Guitar 2:

|--------------------------------------------------------------------------------|
|--------------------------------------------------------------------------------|
|-3-3-5-5-7-7-109---9-9-9-9-9-9-9-12-12-12-12-12-12-12-12-12-12-12-12-12-12-12-12|
|-x-x-x-x-x-x-x-x---x-x-x-x-x-x-x-x--x--x--x--x--x--x--x--x--x--x--x--x--x--x--x-|
|-1-1-3-3-5-5-8-7---7-7-7-7-7-7-7-10-10-10-10-10-10-10-10-10-10-10-10-10-10-10-10|
|--------------------------------------------------------------------------------|

 Guitar 1:

|-------------------------------------------------------------------8-6-5-------6-5-----3-------3|
|6--6-6-6-------6---6-6-6-------10---10-10-10-8---6---6-6-6-6-6-6-6---------6-------6-3-----6-3--|
|---------7-8-8-----------7-8-8------------------------------------------------------------------|
|------------------------------------------------------------------------------------------------|
|------------------------------------------------------------------------------------------------|
|------------------------------------------------------------------------------------------------|

 Guitar 2:

|--------------------------------------------------|
|--------------------------------------------------|
|-3-3-5-5-7-7-109---9-9-9-9-9-9-14---14-14-14-12---|
|-x-x-x-x-x-x-x-x---x-x-x-x-x-x-x----x--x--x--x----|
|-1-1-3-3-5-5-8-7---7-7-7-7-7-7-12---12-12-12-10---|
|--------------------------------------------------|

|--------------------------------------------------------------|
|--------------------------------------------------------------|
|10--1010101010101012-12-12-12-12-12-12-12-12-12-12-12-12-12-12|
|x---x-x-x-x-x-x-x-x--x--x--x--x--x--x--x--x--x--x--x--x--x--x-|
|8---8-8-8-8-8-8-8-10-10-10-10-10-10-10-10-10-10-10-10-10-10-10|
|--------------------------------------------------------------|

Part 6

 Guitar 1:

|-----------------------------------------------------------------|
|---6-----------------------6-------6-----------------------6-----|
|-8---0-0-0-0-3-5-0-0-0-0-8---0-0-8---0-0-0-0-3-5-0-0-0-0-8---0-0-|
|-----------------------------------------------------------------|
|-----------------------------------------------------------------|
|-----------------------------------------------------------------|

 Guitar 2:

|-----------------------------------------------------------------|
|---------------------------------------------------3-2---3-2-----|
|-0-0-0-0-0-0-0-0-0-0-0-0-0-0-0-0-0-0-0-0-0-0-0-0-0-0-0-0-0-0-0-0-|
|-5-5-5-5-5-5-5-5-5-5-5-5-5-5-5-5-5-5-5-5-5-5-5-5-5-5-5-5-5-5-5-5-|
|-----------------------------------------------------------------|
|-----------------------------------------------------------------|

 Now Play "Part 5"

Ending Part (x2)

 Guitar 1:

|-----------------------------------------------------------------|
|---6---------------6---------------6---------------6-------------|
|-8---0-0-3-5-0-0-8---0-0-0-0-0-0-8---0-0-3-5-0-0-8---0-0-0-0-0-0-|
|-----------------------------------------------------------------|
|-----------------------------------------------------------------|
|-----------------------------------------------------------------|

 Guitar 2:

|-----------------------------------------------------------------|
|-------------------3-2---3-2-----------------------3-2---3-2-----|
|-0-0-0-0-0-0-0-0-0-0-0-0-0-0-0-0-0-0-0-0-0-0-0-0-0-0-0-0-0-0-0-0-|
|-5-5-5-5-5-5-5-5-5-5-5-5-5-5-5-5-5-5-5-5-5-5-5-5-5-5-5-5-5-5-5-5-|
|-----------------------------------------------------------------|
|-----------------------------------------------------------------|

ORDER:     GUITARS:
pt 1       G1: distortion  G2: clean
pt 2       G1: distortion  G2: clean
pt 1       G1: distortion  G2: distortion
pt 3       G1: distortion  G2: distortion
pt 4       G1: distortion  G2: distortion
pt 1       G1: distortion  G2: distortion
pt 3       G1: distortion  G2: distortion
pt 5       G1: distortion  G2: distortion
pt 6       G1: distortion  G2: heavy distortion
pt 5       G1: distortion  G2: distortion
end pt     G1: distortion  G2: heavy distortion
Tap to rate this tab
 
# A B C D E F G H I J K L M N O P Q R S T U V W X Y Z