Song name
# A B C D E F G H I J K L M N O P Q R S T U V W X Y Z

Mogwai - Thank You Space Expert tab

Mogwai - Thank you space expert

Very easy and beatiful song. For better experience use electroguitar with light delay 
and bright treble(high tones)without any distorting, sound must be absolutely clean! :)
Tab is ear-transcribed! (don't be very strict to me)
/ = Slide

(little bass intro for rythm):

0:00
e|---------------------------------|
B|---------------------------------|
G|---------------------------------|
D|---------------------------------|
A|---2---2---2---2---2---2---2---2-|
E|---------------------------------|


intro (lead guitar):

0:13                   ^
e|-----------------------------------0----------|
B|---12---10---7---3---0------------7-7---------|
G|----------------------------------------------|
D|----------------------------------------------|
A|----------------------------------------------|
E|----------------------------------------------|

(^ - here is beginning excellent drums ;))

0:28 (this phrase is playing two times)

e|----------------------------------------------|
B|---12---14---10---14---7----------------------|
G|----------------------------------------------|
D|----------------------------------------------|
A|----------------------------------------------|
E|----------------------------------------------|

0:49

e|-----------------------------------0----------|
B|---12---10---7---3---0------------7-7---------|
G|----------------------------------------------|
D|----------------------------------------------|
A|----------------------------------------------|
E|----------------------------------------------|

1:04  (this phrase is playing two times)

e|----------------------------------------------|
B|---12---14---10---14---7----------------------|
G|----------------------------------------------|
D|----------------------------------------------|
A|----------------------------------------------|
E|----------------------------------------------|

1:24

e|----------------------------------------------|
B|---3---0--------------------------------------|
G|-----------2----------------------------------|
D|---------------2/4----------------------------|
A|----------------------------------------------|
E|----------------------------------------------|

synth...

then main phrase (must be by piano, but sounds fine by guitar too)

3:29

e|----------------------------------------------|
B|---3---5-7---5-7-10---5---3---7---0-----------|
G|----------------------------------------------|
D|----------------------------------------------|
A|----------------------------------------------|
E|----------------------------------------------|

3:39

e|-----------------------------------------------|
B|---3---5-7---5-7-12---3---0--------------------|
G|-----------------------------------------------|
D|-----------------------------------------------|
A|-----------------------------------------------|
E|-----------------------------------------------|

That's all, that I transcribed. All these phrases is repeating a lot in the song. Also 
you can try playing main phrase like that: (sounds nice)

e|----------------------------------------------|
B|---15---17-19---17-19-23---17---15---19---12--|
G|----------------------------------------------|
D|----------------------------------------------|
A|----------------------------------------------|
E|----------------------------------------------|

e|----------------------19----------------------|
B|---15---17-19---17-19------15---10/12---------|
G|----------------------------------------------|
D|----------------------------------------------|
A|----------------------------------------------|
E|----------------------------------------------|

Thank you Mogwai.
Tap to rate this tab
# A B C D E F G H I J K L M N O P Q R S T U V W X Y Z