Song name
# A B C D E F G H I J K L M N O P Q R S T U V W X Y Z

Mogwai - No Medicine For Regret tab

---------------------------------------------------------------------------
                         NO MEDICINE FOR REGRET - Mogwai
---------------------------------------------------------------------------
Tabbed by:fallwind

Tuning: standard

you have to listen to the song to get the timings and stuff

guitar 1 part 1
e|--------------------------------------------------------------------------|
B|--------------------------------------------------------------------------|
G|--------------------------------------------------------------------------|
D|--7-9-10-12--9-10-9-7--7-9-10-12--9-10-9-7--7-9-10-12-9--9-10-9-9-10-9-7--|
A|--0----------0---------0----------0---------0------------0------0---------|
E|--------------------------------------------------------------------------|

e|--------------------------------------------------------------------------|
B|--------------------------------------------------------------------------|
G|--------------------------------------------------------------------------|
D|--7-9-10-12-9--9-10-9-7---------------------------------------------------|
A|--0------------0----------------------------------------------------------|
E|--------------------------------------------------------------------------|

guitar 1 part 2 (very hard to determine, just a rough outline, you may do better on your own)
e|-------0----0---0---------------------0--0---3------0---------0---0------|
B|----3----3---3---3--0--0--0--0--1--0----3--3---1-----3--0--0----3---3-3--|
G|--5--5-----5--5---5---5--5--5--5--2--5-------5---2--------5--5-----------|
D|-------------------------------------------------------------------------|
A|-------------------------------------------------------------------------|
E|-------------------------------------------------------------------------|

e|--0-0-0------------------------------------------------------------------|
B|---3---3-0--0---0--0-----------------------------------------------------|
G|----------5--5-5-5-------------------------------------------------------|
D|-------------------------------------------------------------------------|
A|-------------------------------------------------------------------------|
E|-------------------------------------------------------------------------|

then again part 1,but only the last two fractions of it repeated (just listen to the 
song) and then this at the end
e|-------------------------------------------------------------------------|
B|-------------------------------------------------------------------------|
G|-------------------------------------------------------------------------|
D|--9-10-9--9-10-7---------------------------------------------------------|
A|--0-------0--------------------------------------------------------------|
E|-------------------------------------------------------------------------|

then part 2 with random variation, then turns electric and goes these notes with various 
length, just listen
e|-------------------------------------------------------------------------|
B|-10...--12...--13...--12...--10...--8...--6...--8...--15..--10..--12..---|
G|-------------------------------------------------------------------------|
D|-------------------------------------------------------------------------|
A|-------------------------------------------------------------------------|
E|-------------------------------------------------------------------------|

e|-------------------------------------------------------------------------|
B|--15..--10..--8..--10..--17..--12..--15..--10..-- 10..--8..--6..--10..---|
G|-------------------------------------------------------------------------|
D|-------------------------------------------------------------------------|
A|-------------------------------------------------------------------------|
E|-------------------------------------------------------------------------|

e|-------------------------------------------------------------------------|
B|-12..--13..--12..--10..--8..--6..--12..--15..--17..--20..--15..--17..----|
G|-------------------------------------------------------------------------|
D|-------------------------------------------------------------------------|
A|-------------------------------------------------------------------------|
E|-------------------------------------------------------------------------|

e|-------------------------------------------------------------------------|
B|--8..--10..--15..--17..--12..--15..--17..--20..--18..--------------------|
G|-------------------------------------------------------------------------|
D|-------------------------------------------------------------------------|
A|-------------------------------------------------------------------------|
E|-------------------------------------------------------------------------|
at the end it strums a sequence of Am, G, F, G twice and ends on Am

guitar 2 with tremolo or something similar (never used such things)
e|-------------------------------------------------------------------------|
B|-5-----8--------5----1-----1---5----8--------5---------------------------|
G|---5-----5----7----2----2--------5----5---7-----7----7-------------------|
D|-------------------------------------------------------------------------|
A|-------------------------------------------------------------------------|
E|-------------------------------------------------------------------------|
this part twice with guitar 1 part 2 both times, when g1 turns electric it goes like 
this two times, always twice

e|-------------------------------------------------------------------------|
B|--8---8---6-------------5---3---3--1-------------------------------------|
G|----9---9---9--5---0--2---2---0------------------------------------------|
D|-------------------------------------------------------------------------|
A|-------------------------------------------------------------------------|
E|-------------------------------------------------------------------------|

the piano melody

e|-------------------------------------------------------------------------|
B|-------------------------------------------------------------------------|
G|--7-9-----------------7-9------------------------------------------------|
D|------7-10--9-10-9-7-------7-10--12-10-9-7-------------------------------|
A|-------------------------------------------------------------------------|
E|-------------------------------------------------------------------------|

guitar 3 (hardly audible along part 2)

e|--10--10-12-10-8---------------------------------------------------------

or maybe one pitch higher
...

amazing song
Tap to rate this tab
# A B C D E F G H I J K L M N O P Q R S T U V W X Y Z