Guitaretab - guitar tabs
Song name
# A B C D E F G H I J K L M N O P Q R S T U V W X Y Z

Mogwai - Take Me Somewhere Nice tab

Take Me Somewhere Nice Tab by Mogwai,

I think it is pretty close to the song, very easy to play, and beautiful song. I 
the time scale. I slightly change some part at the end of the song to remind the intro.

contact: cliolaurent@yahoo.fr


Tuning = Drop D for the beginning.

intro

E-----------------------------------------------------|
B-----------------------------------------------------|
G-----------------------------------------------------|* Repeats
D-------4---4-------4---4/7-----7---7-------7---7-----|*   4x
A-----0---0---0---0---0-------4---4---4---4---4---4---|
D---0-----------0-----------4-----------4-------------|

E----------------------------------------------------------------------|
B----------------------------------------------------------------------|
G----------------------------------------------------------------------|
D-------4---4-------4---4/7-----7---7-------7---7/11-----11---11-------|
A-----0---0---0---0---0-------4---4---4---4---4--------9----9----9-----|
D---0-----------0-----------4-----------4------------9-------------9---|

E----------------------------------------------------------------------|
B----------------------------------------------------------------------|
G----------------------------------------------------------------------|
D-----11---11--------7---7-------7---7-------11---11-------11---11-----|
A---9----9----9----5---5---5---5---5---5---9----9----9---9----9----9---|
D----------------5-----------5-----------9-------------9---------------|

E-----------------------------|
B-----------------------------|
G-----------------------------|
D-------7---7-------7---7-----|
A-----5---5---5---5---5---5---|
D---5-----------5-------------|

25"
Very quiet-tremolo	clean
E-----------------|------------------------------------------------------|
B---3--3--2--2--2-|------2-5--2-2-0-0--------2-----2-2-3-2---------------|
G-----------------|-2-2-----------------2-2----2-2----------2-2----------|
D-----------------|------------------------------------------------------|
A-----------------|------------------------------------------------------|
D-----------------|------------------------------------------------------|
					114
E-------------------------------------------------------------------------|
B--2/5-5/2-2--2-0--2------2-------2-2-0-2--2-|-2--2-3-5-5--3--3--3--3-----|
G---------------------2--2----2-2----------2-|----------------------------|
D------------------------------------------2-|----------------------------|
A------------------------------------------0-|----------------------------|
D--------------------------------------------|----------------------------|
				140
E----------------------------|------------------------------------------|
B--2-2-3-5-5-----3-3-3-3---2-|------ 2-----2-2--3---2-------2-5-5-------|
G--------------------------2-|--2--2----2-------------2--2--------------|
D--------------------------2-|------------------------------------------|
A--------------------------0-|------------------------------------------|
D----------------------------|------------------------------------------|
[ Tab from: http://www.guitaretab.com/m/mogwai/41790.html ]
E-------------------------------------------------------------------2-2--|
B----2--2-0-2--------3/2--5/2--2--2-0--2-----5---3--3--2--2--3--2--------|
G-------------2-2/6----------------------2-2-----------------------2-----|
D------------------------------------------------------------------------|
A------------------------------------------------------------------------|
D------------------------------------------------------------------------|
			245"					310"
E----------------------|------------------------------------------|---|
B---5--5/2-2--2-0--2--2|-2-2-3-5-5-3-3--3-3-2-2-3-5-5--3--3-3-3--2|---|
G---------------------2|-----------------------------------------2|---|
D---------------------2|-----------------------------------------2|---|
A---------------------0|-----------------------------------------0|---|
D----------------------|------------------------------------------|---|

E--------------------------------------------------------------------------|
B------2---------2-2-2-----2-5----5/3-2--2--3-3/2-------2--------2-2---2-3-|
G--2-2---2-2-2----------2-------------------------2--2----2--2-------------|
D--------------------------------------------------------------------------|
A---------------------2----------------------------------------------------|
D--------------------------------------------------------------------------|

340
E-------------------------------------------------0-----------------------|
B--3-2----3-3-2-2/5--0---0-------3/5-5-5/2-0----3-----2----2--3-5-5-------|
G-------2--------------1----1-----------------1---------------------------|
D---------------------------------------------------4----4----------------|
A-------------------------------------------------------------------------|
D-------------------------------------------------------------------------|

4'14
E------------------------------------------------------------------------|
B-------------------------2----2--3--5--5--------------------------------|
G------2---2----2---2------------------------2---2----2---2--------------|
D----0----0---0---0------4----4-------------0---0----0---0---------------|
A------------------------------------------------------------------------|
D------------------------------------------------------------------------|

4'30
E------------------------------------------------------------------------|
B-----2----5---5--5--------------------------5---5-5--5------------------|
G-----------------------2---2-----2---2--------------------2---2----2--2-|
D---4----4-------------0---0-----0---0-----4---4----------0---0----0--0--|
A------------------------------------------------------------------------|
D------------------------------------------------------------------------|


506

E--------------------------------------------2-0-0/2---------------------|
B-------2-----2-2-2-2-----2--3-2-2-2-2---------------2-2-0--2-----2------|
G---2-2---2-2---------2-2---2-----------2-2-------------------2-2---2-2--|
D------------------------------------------------------------------------|
A------------------------------------------------------------------------|
D------------------------------------------------------------------------|

		555
E-----------------------------------------------------------------------|
B----2-2-2-2-----2----2--3--5-5---------------------2----2--3--5-5------|
G-----------------------------------------------------------------------|
D--------------4----4--------------7----7---7---7--4---4----------------|
A--------------------------------5----5---5---5-------------------------|
D-----------------------------------------------------------------------|


E-----------------------------------------------------------------------|
B------------------------2----2--3--5--5--------------------3--2--------|
G-----------------------------------------------------------2--2--------|
D------7----7---7---7--4----4-------------7----7---7---7----------------|
A-----5----5---5---5-------------------5----5---5---5-------------------|
D-----------------------------------------------------------------------|
Related for Take Me Somewhere Nice tab